  0
SECTION
  2
HEADER
  9
$ACADVER
  1
AC1024
  9
$ACADMAINTVER
 70
     6
  9
$DWGCODEPAGE
  3
ANSI_932
  9
$LASTSAVEDBY
  1
flato
  9
$INSBASE
 10
0.0
 20
0.0
 30
0.0
  9
$EXTMIN
 10
45154.4860839844
 20
20500.32373533175
 30
0.0
  9
$EXTMAX
 10
95464.74609375
 20
65228.11236489828
 30
0.0
  9
$LIMMIN
 10
0.0
 20
0.0
  9
$LIMMAX
 10
12.0
 20
9.0
  9
$ORTHOMODE
 70
     1
  9
$REGENMODE
 70
     1
  9
$FILLMODE
 70
     1
  9
$QTEXTMODE
 70
     0
  9
$MIRRTEXT
 70
     1
  9
$LTSCALE
 40
1.0
  9
$ATTMODE
 70
     1
  9
$TEXTSIZE
 40
0.2
  9
$TRACEWID
 40
0.05
  9
$TEXTSTYLE
  7
STANDARD
  9
$CLAYER
  8
LAY0_0
  9
$CELTYPE
  6
CONTINUOUS
  9
$CECOLOR
 62
   256
  9
$CELTSCALE
 40
1.0
  9
$DISPSILH
 70
     0
  9
$DIMSCALE
 40
1.0
  9
$DIMASZ
 40
0.18
  9
$DIMEXO
 40
0.0625
  9
$DIMDLI
 40
0.38
  9
$DIMRND
 40
0.0
  9
$DIMDLE
 40
0.0
  9
$DIMEXE
 40
0.18
  9
$DIMTP
 40
0.0
  9
$DIMTM
 40
0.0
  9
$DIMTXT
 40
0.18
  9
$DIMCEN
 40
0.09
  9
$DIMTSZ
 40
0.0
  9
$DIMTOL
 70
     0
  9
$DIMLIM
 70
     0
  9
$DIMTIH
 70
     1
  9
$DIMTOH
 70
     1
  9
$DIMSE1
 70
     0
  9
$DIMSE2
 70
     0
  9
$DIMTAD
 70
     0
  9
$DIMZIN
 70
     0
  9
$DIMBLK
  1

  9
$DIMASO
 70
     1
  9
$DIMSHO
 70
     1
  9
$DIMPOST
  1

  9
$DIMAPOST
  1

  9
$DIMALT
 70
     0
  9
$DIMALTD
 70
     2
  9
$DIMALTF
 40
25.4
  9
$DIMLFAC
 40
1.0
  9
$DIMTOFL
 70
     0
  9
$DIMTVP
 40
0.0
  9
$DIMTIX
 70
     0
  9
$DIMSOXD
 70
     0
  9
$DIMSAH
 70
     0
  9
$DIMBLK1
  1

  9
$DIMBLK2
  1

  9
$DIMSTYLE
  2
Standard
  9
$DIMCLRD
 70
     0
  9
$DIMCLRE
 70
     0
  9
$DIMCLRT
 70
     0
  9
$DIMTFAC
 40
1.0
  9
$DIMGAP
 40
0.09
  9
$DIMJUST
 70
     0
  9
$DIMSD1
 70
     0
  9
$DIMSD2
 70
     0
  9
$DIMTOLJ
 70
     1
  9
$DIMTZIN
 70
     0
  9
$DIMALTZ
 70
     0
  9
$DIMALTTZ
 70
     0
  9
$DIMUPT
 70
     0
  9
$DIMDEC
 70
     4
  9
$DIMTDEC
 70
     4
  9
$DIMALTU
 70
     2
  9
$DIMALTTD
 70
     2
  9
$DIMTXSTY
  7
STANDARD
  9
$DIMAUNIT
 70
     0
  9
$DIMADEC
 70
     0
  9
$DIMALTRND
 40
0.0
  9
$DIMAZIN
 70
     0
  9
$DIMDSEP
 70
    46
  9
$DIMATFIT
 70
     3
  9
$DIMFRAC
 70
     0
  9
$DIMLDRBLK
  1

  9
$DIMLUNIT
 70
     2
  9
$DIMLWD
 70
    -2
  9
$DIMLWE
 70
    -2
  9
$DIMTMOVE
 70
     0
  9
$DIMFXL
 40
1.0
  9
$DIMFXLON
 70
     0
  9
$DIMJOGANG
 40
0.7853981633974483
  9
$DIMTFILL
 70
     0
  9
$DIMTFILLCLR
 70
     0
  9
$DIMARCSYM
 70
     0
  9
$DIMLTYPE
  6

  9
$DIMLTEX1
  6

  9
$DIMLTEX2
  6

  9
$DIMTXTDIRECTION
 70
     0
  9
$LUNITS
 70
     2
  9
$LUPREC
 70
     4
  9
$SKETCHINC
 40
0.1
  9
$FILLETRAD
 40
0.0
  9
$AUNITS
 70
     0
  9
$AUPREC
 70
     0
  9
$MENU
  1
.
  9
$ELEVATION
 40
0.0
  9
$PELEVATION
 40
0.0
  9
$THICKNESS
 40
0.0
  9
$LIMCHECK
 70
     0
  9
$CHAMFERA
 40
0.0
  9
$CHAMFERB
 40
0.0
  9
$CHAMFERC
 40
0.0
  9
$CHAMFERD
 40
0.0
  9
$SKPOLY
 70
     0
  9
$TDCREATE
 40
2454214.748747465
  9
$TDUCREATE
 40
2454214.373747465
  9
$TDUPDATE
 40
2459374.668418681
  9
$TDUUPDATE
 40
2459374.293418681
  9
$TDINDWG
 40
0.191568912
  9
$TDUSRTIMER
 40
0.0003472454
  9
$USRTIMER
 70
     1
  9
$ANGBASE
 50
0.0
  9
$ANGDIR
 70
     0
  9
$PDMODE
 70
     0
  9
$PDSIZE
 40
0.0
  9
$PLINEWID
 40
0.0
  9
$SPLFRAME
 70
     0
  9
$SPLINETYPE
 70
     6
  9
$SPLINESEGS
 70
     8
  9
$HANDSEED
  5
93C
  9
$SURFTAB1
 70
     6
  9
$SURFTAB2
 70
     6
  9
$SURFTYPE
 70
     6
  9
$SURFU
 70
     6
  9
$SURFV
 70
     6
  9
$UCSBASE
  2

  9
$UCSNAME
  2

  9
$UCSORG
 10
0.0
 20
0.0
 30
0.0
  9
$UCSXDIR
 10
1.0
 20
0.0
 30
0.0
  9
$UCSYDIR
 10
0.0
 20
1.0
 30
0.0
  9
$UCSORTHOREF
  2

  9
$UCSORTHOVIEW
 70
     0
  9
$UCSORGTOP
 10
0.0
 20
0.0
 30
0.0
  9
$UCSORGBOTTOM
 10
0.0
 20
0.0
 30
0.0
  9
$UCSORGLEFT
 10
0.0
 20
0.0
 30
0.0
  9
$UCSORGRIGHT
 10
0.0
 20
0.0
 30
0.0
  9
$UCSORGFRONT
 10
0.0
 20
0.0
 30
0.0
  9
$UCSORGBACK
 10
0.0
 20
0.0
 30
0.0
  9
$PUCSBASE
  2

  9
$PUCSNAME
  2

  9
$PUCSORG
 10
0.0
 20
0.0
 30
0.0
  9
$PUCSXDIR
 10
1.0
 20
0.0
 30
0.0
  9
$PUCSYDIR
 10
0.0
 20
1.0
 30
0.0
  9
$PUCSORTHOREF
  2

  9
$PUCSORTHOVIEW
 70
     0
  9
$PUCSORGTOP
 10
0.0
 20
0.0
 30
0.0
  9
$PUCSORGBOTTOM
 10
0.0
 20
0.0
 30
0.0
  9
$PUCSORGLEFT
 10
0.0
 20
0.0
 30
0.0
  9
$PUCSORGRIGHT
 10
0.0
 20
0.0
 30
0.0
  9
$PUCSORGFRONT
 10
0.0
 20
0.0
 30
0.0
  9
$PUCSORGBACK
 10
0.0
 20
0.0
 30
0.0
  9
$USERI1
 70
     0
  9
$USERI2
 70
     0
  9
$USERI3
 70
     0
  9
$USERI4
 70
     0
  9
$USERI5
 70
     0
  9
$USERR1
 40
0.0
  9
$USERR2
 40
0.0
  9
$USERR3
 40
0.0
  9
$USERR4
 40
0.0
  9
$USERR5
 40
0.0
  9
$WORLDVIEW
 70
     1
  9
$SHADEDGE
 70
     3
  9
$SHADEDIF
 70
    70
  9
$TILEMODE
 70
     1
  9
$MAXACTVP
 70
    64
  9
$PINSBASE
 10
0.0
 20
0.0
 30
0.0
  9
$PLIMCHECK
 70
     0
  9
$PEXTMIN
 10
1.144500083810701
 20
0.8019999828864268
 30
0.0
  9
$PEXTMAX
 10
10.30050075429631
 20
7.217999845977845
 30
0.0
  9
$PLIMMIN
 10
-0.1249995194082185
 20
-0.1249999981226884
  9
$PLIMMAX
 10
11.5700008362297
 20
8.144999949012217
  9
$UNITMODE
 70
     0
  9
$VISRETAIN
 70
     1
  9
$PLINEGEN
 70
     0
  9
$PSLTSCALE
 70
     1
  9
$TREEDEPTH
 70
  3020
  9
$CMLSTYLE
  2
Standard
  9
$CMLJUST
 70
     0
  9
$CMLSCALE
 40
1.0
  9
$PROXYGRAPHICS
 70
     1
  9
$MEASUREMENT
 70
     0
  9
$CELWEIGHT
370
    -1
  9
$ENDCAPS
280
     0
  9
$JOINSTYLE
280
     0
  9
$LWDISPLAY
290
     0
  9
$INSUNITS
 70
     0
  9
$HYPERLINKBASE
  1

  9
$STYLESHEET
  1

  9
$XEDIT
290
     1
  9
$CEPSNTYPE
380
     0
  9
$PSTYLEMODE
290
     1
  9
$FINGERPRINTGUID
  2
{58FE3056-118B-406D-9F25-F4AB05CBA92D}
  9
$VERSIONGUID
  2
{EA1243A3-FC12-4064-88A8-81A0763DE078}
  9
$EXTNAMES
290
     1
  9
$PSVPSCALE
 40
0.0
  9
$OLESTARTUP
290
     0
  9
$SORTENTS
280
   127
  9
$INDEXCTL
280
     0
  9
$HIDETEXT
280
     1
  9
$XCLIPFRAME
280
     2
  9
$HALOGAP
280
     0
  9
$OBSCOLOR
 70
   257
  9
$OBSLTYPE
280
     0
  9
$INTERSECTIONDISPLAY
280
     0
  9
$INTERSECTIONCOLOR
 70
   257
  9
$DIMASSOC
280
     1
  9
$PROJECTNAME
  1

  9
$CAMERADISPLAY
290
     0
  9
$LENSLENGTH
 40
50.0
  9
$CAMERAHEIGHT
 40
0.0
  9
$STEPSPERSEC
 40
2.0
  9
$STEPSIZE
 40
6.0
  9
$3DDWFPREC
 40
2.0
  9
$PSOLWIDTH
 40
0.25
  9
$PSOLHEIGHT
 40
4.0
  9
$LOFTANG1
 40
1.570796326794897
  9
$LOFTANG2
 40
1.570796326794897
  9
$LOFTMAG1
 40
0.0
  9
$LOFTMAG2
 40
0.0
  9
$LOFTPARAM
 70
     7
  9
$LOFTNORMALS
280
     1
  9
$LATITUDE
 40
37.795
  9
$LONGITUDE
 40
-122.394
  9
$NORTHDIRECTION
 40
0.0
  9
$TIMEZONE
 70
 -8000
  9
$LIGHTGLYPHDISPLAY
280
     1
  9
$TILEMODELIGHTSYNCH
280
     1
  9
$SOLIDHIST
280
     0
  9
$SHOWHIST
280
     1
  9
$DWFFRAME
280
     2
  9
$DGNFRAME
280
     2
  9
$REALWORLDSCALE
290
     1
  9
$INTERFERECOLOR
 62
   256
  9
$CSHADOW
280
     0
  9
$SHADOWPLANELOCATION
 40
0.0
  0
ENDSEC
  0
SECTION
  2
CLASSES
  0
CLASS
  1
ACDBDICTIONARYWDFLT
  2
AcDbDictionaryWithDefault
  3
ObjectDBX Classes
 90
        0
 91
        3
280
     0
281
     0
  0
CLASS
  1
ACDBPLACEHOLDER
  2
AcDbPlaceHolder
  3
ObjectDBX Classes
 90
        0
 91
        1
280
     0
281
     0
  0
CLASS
  1
LAYOUT
  2
AcDbLayout
  3
ObjectDBX Classes
 90
        0
 91
        1
280
     0
281
     0
  0
CLASS
  1
DICTIONARYVAR
  2
AcDbDictionaryVar
  3
ObjectDBX Classes
 90
        0
 91
        3
280
     0
281
     0
  0
CLASS
  1
VISUALSTYLE
  2
AcDbVisualStyle
  3
ObjectDBX Classes
 90
     4095
 91
        3
280
     0
281
     0
  0
CLASS
  1
SCALE
  2
AcDbScale
  3
ObjectDBX Classes
 90
     1153
 91
        3
280
     0
281
     0
  0
CLASS
  1
MATERIAL
  2
AcDbMaterial
  3
ObjectDBX Classes
 90
     1153
 91
        3
280
     0
281
     0
  0
CLASS
  1
TABLESTYLE
  2
AcDbTableStyle
  3
ObjectDBX Classes
 90
     4095
 91
        3
280
     0
281
     0
  0
CLASS
  1
MLEADERSTYLE
  2
AcDbMLeaderStyle
  3
ACDB_MLEADERSTYLE_CLASS
 90
     4095
 91
        3
280
     0
281
     0
  0
CLASS
  1
SUN
  2
AcDbSun
  3
SCENEOE
 90
     1153
 91
        3
280
     0
281
     0
  0
CLASS
  1
SORTENTSTABLE
  2
AcDbSortentsTable
  3
ObjectDBX Classes
 90
        0
 91
        3
280
     0
281
     0
  0
CLASS
  1
CELLSTYLEMAP
  2
AcDbCellStyleMap
  3
ObjectDBX Classes
 90
     1152
 91
        3
280
     0
281
     0
  0
ENDSEC
  0
SECTION
  2
TABLES
  0
TABLE
  2
VPORT
  5
8
330
0
100
AcDbSymbolTable
 70
     1
  0
VPORT
  5
8A0
330
8
100
AcDbSymbolTableRecord
100
AcDbViewportTableRecord
  2
*Active
 70
     0
 10
0.0
 20
0.0
 11
1.0
 21
1.0
 12
68183.75833116035
 22
39575.35780251637
 13
0.0
 23
0.0
 14
1.0
 24
1.0
 15
0.0
 25
0.0
 16
0.0
 26
0.0
 36
1.0
 17
0.0
 27
0.0
 37
0.0
 40
81233.2399575029
 41
2.230421686746988
 42
50.0
 43
0.0
 44
0.0
 50
0.0
 51
0.0
 71
    16
 72
   100
 73
     1
 74
     1
 75
     0
 76
     0
 77
     0
 78
     0
281
     0
 65
     1
110
0.0
120
0.0
130
0.0
111
1.0
121
0.0
131
0.0
112
0.0
122
1.0
132
0.0
 79
     0
146
0.0
348
8A6
 60
     3
 61
     5
292
     1
282
     1
141
0.0
142
0.0
 63
   256
361
8EA
  0
ENDTAB
  0
TABLE
  2
LTYPE
  5
5
330
0
100
AcDbSymbolTable
 70
     4
  0
LTYPE
  5
13
330
5
100
AcDbSymbolTableRecord
100
AcDbLinetypeTableRecord
  2
ByBlock
 70
     0
  3

 72
    65
 73
     0
 40
0.0
  0
LTYPE
  5
14
330
5
100
AcDbSymbolTableRecord
100
AcDbLinetypeTableRecord
  2
ByLayer
 70
     0
  3

 72
    65
 73
     0
 40
0.0
  0
LTYPE
  5
15
330
5
100
AcDbSymbolTableRecord
100
AcDbLinetypeTableRecord
  2
CONTINUOUS
 70
     0
  3
CONTINUOUS
 72
    65
 73
     0
 40
0.0
  0
LTYPE
  5
22
330
5
100
AcDbSymbolTableRecord
100
AcDbLinetypeTableRecord
  2
DASHED1
 70
     0
  3
DASHED1
 72
    65
 73
     2
 40
2.5
 49
1.25
 74
     0
 49
-1.25
 74
     0
  0
LTYPE
  5
23
330
5
100
AcDbSymbolTableRecord
100
AcDbLinetypeTableRecord
  2
DASHED2
 70
     0
  3
DASHED2
 72
    65
 73
     4
 40
10.0
 49
6.25
 74
     0
 49
-1.25
 74
     0
 49
1.25
 74
     0
 49
-1.25
 74
     0
  0
LTYPE
  5
24
330
5
100
AcDbSymbolTableRecord
100
AcDbLinetypeTableRecord
  2
CENTER
 70
     0
  3
CENTER
 72
    65
 73
     2
 40
2.5
 49
0.625
 74
     0
 49
-1.875
 74
     0
  0
ENDTAB
  0
TABLE
  2
LAYER
  5
2
102
{ACAD_XDICTIONARY
360
8EF
102
}
330
0
100
AcDbSymbolTable
 70
     2
  0
LAYER
  5
10
330
2
100
AcDbSymbolTableRecord
100
AcDbLayerTableRecord
  2
0
 70
     0
 62
     7
  6
CONTINUOUS
370
    -3
390
F
347
8DE
  0
LAYER
  5
25
330
2
100
AcDbSymbolTableRecord
100
AcDbLayerTableRecord
  2
LAY0_0
 70
     0
 62
     7
  6
CONTINUOUS
370
    -3
390
F
347
8DE
  0
ENDTAB
  0
TABLE
  2
STYLE
  5
3
330
0
100
AcDbSymbolTable
 70
     1
  0
STYLE
  5
11
330
3
100
AcDbSymbolTableRecord
100
AcDbTextStyleTableRecord
  2
STANDARD
 70
     0
 40
0.0
 41
1.0
 50
0.0
 71
     0
 42
0.2
  3
TXT
  4
BIGFONT
  0
ENDTAB
  0
TABLE
  2
VIEW
  5
6
330
0
100
AcDbSymbolTable
 70
     0
  0
ENDTAB
  0
TABLE
  2
UCS
  5
7
330
0
100
AcDbSymbolTable
 70
     0
  0
ENDTAB
  0
TABLE
  2
APPID
  5
9
330
0
100
AcDbSymbolTable
 70
     2
  0
APPID
  5
12
330
9
100
AcDbSymbolTableRecord
100
AcDbRegAppTableRecord
  2
ACAD
 70
     0
  0
APPID
  5
938
330
9
100
AcDbSymbolTableRecord
100
AcDbRegAppTableRecord
  2
PLOTTRANSPARENCY
 70
     0
  0
ENDTAB
  0
TABLE
  2
DIMSTYLE
  5
A
330
0
100
AcDbSymbolTable
 70
     1
100
AcDbDimStyleTable
  0
DIMSTYLE
105
813
330
A
100
AcDbSymbolTableRecord
100
AcDbDimStyleTableRecord
  2
Standard
 70
     0
178
     0
340
11
  0
ENDTAB
  0
TABLE
  2
BLOCK_RECORD
  5
1
330
0
100
AcDbSymbolTable
 70
     0
  0
BLOCK_RECORD
  5
1E
330
1
100
AcDbSymbolTableRecord
100
AcDbBlockTableRecord
  2
*Model_Space
340
21
 70
     0
280
     1
281
     0
  0
BLOCK_RECORD
  5
1A
330
1
100
AcDbSymbolTableRecord
100
AcDbBlockTableRecord
  2
*Paper_Space
340
1D
 70
     0
280
     1
281
     0
  0
ENDTAB
  0
ENDSEC
  0
SECTION
  2
BLOCKS
  0
BLOCK
  5
1F
330
1E
100
AcDbEntity
  8
0
100
AcDbBlockBegin
  2
*Model_Space
 70
     0
 10
0.0
 20
0.0
 30
0.0
  3
*Model_Space
  1

  0
ENDBLK
  5
20
330
1E
100
AcDbEntity
  8
0
100
AcDbBlockEnd
  0
BLOCK
  5
1B
330
1A
100
AcDbEntity
 67
     1
  8
0
100
AcDbBlockBegin
  2
*Paper_Space
 70
     0
 10
0.0
 20
0.0
 30
0.0
  3
*Paper_Space
  1

  0
ENDBLK
  5
1C
330
1A
100
AcDbEntity
 67
     1
  8
0
100
AcDbBlockEnd
  0
ENDSEC
  0
SECTION
  2
ENTITIES
  0
LINE
  5
29
330
1E
100
AcDbEntity
  8
LAY0_0
  6
Continuous
 62
     0
100
AcDbLine
 10
79532.8247070313
 20
49251.4770507813
 30
0.0
 11
79506.6528320313
 21
49153.81164550781
 31
0.0
  0
LINE
  5
2A
330
1E
100
AcDbEntity
  8
LAY0_0
  6
Continuous
 62
     0
100
AcDbLine
 10
79532.8247070313
 20
49251.4770507813
 30
0.0
 11
79558.9965820313
 21
49153.81164550781
 31
0.0
  0
LINE
  5
2B
330
1E
100
AcDbEntity
  8
LAY0_0
  6
Continuous
 62
     0
100
AcDbLine
 10
79532.8247070313
 20
48651.4770507813
 30
0.0
 11
79558.9965820313
 21
48749.14245605469
 31
0.0
  0
LINE
  5
2C
330
1E
100
AcDbEntity
  8
LAY0_0
  6
Continuous
 62
     0
100
AcDbLine
 10
79532.8247070313
 20
48651.4770507813
 30
0.0
 11
79506.6528320313
 21
48749.14245605469
 31
0.0
  0
LINE
  5
2D
330
1E
100
AcDbEntity
  8
LAY0_0
  6
Continuous
 62
     0
100
AcDbLine
 10
45924.79248046881
 20
44331.6772460938
 30
0.0
 11
46504.34875488291
 21
44176.3854980469
 31
0.0
  0
LINE
  5
2E
330
1E
100
AcDbEntity
  8
LAY0_0
  6
Continuous
 62
     0
100
AcDbLine
 10
45924.79248046881
 20
44331.6772460938
 30
0.0
 11
46504.34875488291
 21
44486.9689941406
 31
0.0
  0
LINE
  5
2F
330
1E
100
AcDbEntity
  8
LAY0_0
  6
Continuous
 62
     0
100
AcDbLine
 10
91424.79248046881
 20
44331.6772460938
 30
0.0
 11
90845.2392578125
 21
44486.9689941406
 31
0.0
  0
LINE
  5
30
330
1E
100
AcDbEntity
  8
LAY0_0
  6
Continuous
 62
     0
100
AcDbLine
 10
91424.79248046881
 20
44331.6772460938
 30
0.0
 11
90845.2392578125
 21
44176.3854980469
 31
0.0
  0
LINE
  5
31
330
1E
100
AcDbEntity
  8
LAY0_0
  6
Continuous
 62
     0
100
AcDbLine
 10
92542.0654296875
 20
41726.3793945313
 30
0.0
 11
92386.77368164061
 21
41146.8231201172
 31
0.0
  0
LINE
  5
32
330
1E
100
AcDbEntity
  8
LAY0_0
  6
Continuous
 62
     0
100
AcDbLine
 10
92542.0654296875
 20
41726.3793945313
 30
0.0
 11
92697.35717773439
 21
41146.8231201172
 31
0.0
  0
LINE
  5
33
330
1E
100
AcDbEntity
  8
LAY0_0
  6
Continuous
 62
     0
100
AcDbLine
 10
92542.0654296875
 20
25726.3793945313
 30
0.0
 11
92697.35717773439
 21
26305.9356689453
 31
0.0
  0
LINE
  5
34
330
1E
100
AcDbEntity
  8
LAY0_0
  6
Continuous
 62
     0
100
AcDbLine
 10
92542.0654296875
 20
25726.3793945313
 30
0.0
 11
92386.77368164061
 21
26305.9356689453
 31
0.0
  0
LINE
  5
35
330
1E
100
AcDbEntity
  8
LAY0_0
  6
Continuous
 62
     0
100
AcDbLine
 10
92202.23388671881
 20
48937.1826171875
 30
0.0
 11
92046.94213867189
 21
48357.6263427734
 31
0.0
  0
LINE
  5
36
330
1E
100
AcDbEntity
  8
LAY0_0
  6
Continuous
 62
     0
100
AcDbLine
 10
92202.23388671881
 20
48937.1826171875
 30
0.0
 11
92357.52563476561
 21
48357.6263427734
 31
0.0
  0
LINE
  5
37
330
1E
100
AcDbEntity
  8
LAY0_0
  6
Continuous
 62
     0
100
AcDbLine
 10
92202.23388671881
 20
45937.1826171875
 30
0.0
 11
92357.52563476561
 21
46516.7388916016
 31
0.0
  0
LINE
  5
38
330
1E
100
AcDbEntity
  8
LAY0_0
  6
Continuous
 62
     0
100
AcDbLine
 10
92202.23388671881
 20
45937.1826171875
 30
0.0
 11
92046.94213867189
 21
46516.7388916016
 31
0.0
  0
LINE
  5
39
330
1E
100
AcDbEntity
  8
LAY0_0
  6
Continuous
 62
     0
100
AcDbLine
 10
80179.6020507813
 20
26526.4282226563
 30
0.0
 11
62143.3715820313
 21
26526.4282226563
 31
0.0
  0
LINE
  5
3A
330
1E
100
AcDbEntity
  8
LAY0_0
  6
Continuous
 62
     0
100
AcDbLine
 10
62143.3715820313
 20
26526.4282226563
 30
0.0
 11
62143.3715820313
 21
26226.4282226563
 31
0.0
  0
LINE
  5
3B
330
1E
100
AcDbEntity
  8
LAY0_0
  6
Continuous
 62
     0
100
AcDbLine
 10
80179.6020507813
 20
26226.4282226563
 30
0.0
 11
62143.3715820313
 21
26226.4282226563
 31
0.0
  0
LINE
  5
3C
330
1E
100
AcDbEntity
  8
LAY0_0
  6
Continuous
 62
     0
100
AcDbLine
 10
53163.6962890625
 20
45937.1826171875
 30
0.0
 11
45925.1037597656
 21
47080.0415039063
 31
0.0
  0
LINE
  5
3D
330
1E
100
AcDbEntity
  8
LAY0_0
  6
CENTER
 62
     0
 48
100.0
100
AcDbLine
 10
57285.9191894531
 20
45990.3381347656
 30
0.0
 11
57848.3032226563
 21
47218.3227539063
 31
0.0
  0
LINE
  5
3E
330
1E
100
AcDbEntity
  8
LAY0_0
  6
Continuous
 62
     0
100
AcDbLine
 10
45288.4826660156
 20
48423.4252929688
 30
0.0
 11
45288.4826660156
 21
46754.8278808594
 31
0.0
  0
LINE
  5
3F
330
1E
100
AcDbEntity
  8
LAY0_0
  6
Continuous
 62
     0
100
AcDbLine
 10
45288.4826660156
 20
46754.8278808594
 30
0.0
 11
46699.5758056641
 21
46754.8278808594
 31
0.0
  0
LINE
  5
40
330
1E
100
AcDbEntity
  8
LAY0_0
  6
Continuous
 62
     0
100
AcDbLine
 10
46694.43054199219
 20
44900.8239746094
 30
0.0
 11
47538.0004882813
 21
44900.8239746094
 31
0.0
  0
LINE
  5
41
330
1E
100
AcDbEntity
  8
LAY0_0
  6
Continuous
 62
     0
100
AcDbLine
 10
47538.0004882813
 20
44808.1237792969
 30
0.0
 11
46694.43054199219
 21
44808.1237792969
 31
0.0
  0
LINE
  5
42
330
1E
100
AcDbEntity
  8
LAY0_0
  6
Continuous
 62
     0
100
AcDbLine
 10
46694.43054199219
 20
44808.1237792969
 30
0.0
 11
46694.43054199219
 21
44900.8239746094
 31
0.0
  0
LINE
  5
43
330
1E
100
AcDbEntity
  8
LAY0_0
  6
Continuous
 62
     0
100
AcDbLine
 10
46788.1591796875
 20
44947.1740722656
 30
0.0
 11
46788.1591796875
 21
46569.4274902344
 31
0.0
  0
LINE
  5
44
330
1E
100
AcDbEntity
  8
LAY0_0
  6
Continuous
 62
     0
100
AcDbLine
 10
45944.5922851563
 20
46569.4274902344
 30
0.0
 11
46928.75671386719
 21
46569.4274902344
 31
0.0
  0
LINE
  5
45
330
1E
100
AcDbEntity
  8
LAY0_0
  6
Continuous
 62
     0
100
AcDbLine
 10
45944.5922851563
 20
44947.1740722656
 30
0.0
 11
46928.75671386719
 21
44947.1740722656
 31
0.0
  0
LINE
  5
46
330
1E
100
AcDbEntity
  8
LAY0_0
  6
Continuous
 62
     0
100
AcDbLine
 10
46928.75671386719
 20
44947.1740722656
 30
0.0
 11
46928.75671386719
 21
46569.4274902344
 31
0.0
  0
LINE
  5
47
330
1E
100
AcDbEntity
  8
LAY0_0
  6
Continuous
 62
     0
100
AcDbLine
 10
45944.5922851563
 20
44947.1740722656
 30
0.0
 11
45944.5922851563
 21
46569.4274902344
 31
0.0
  0
LINE
  5
48
330
1E
100
AcDbEntity
  8
LAY0_0
  6
Continuous
 62
     0
100
AcDbLine
 10
47678.5949707031
 20
45039.8742675781
 30
0.0
 11
47678.5949707031
 21
46569.4274902344
 31
0.0
  0
LINE
  5
49
330
1E
100
AcDbEntity
  8
LAY0_0
  6
Continuous
 62
     0
100
AcDbLine
 10
47538.0004882813
 20
44808.1237792969
 30
0.0
 11
56847.6257324219
 21
45937.1826171875
 31
0.0
  0
LINE
  5
4A
330
1E
100
AcDbEntity
  8
LAY0_0
  6
Continuous
 62
     0
100
AcDbLine
 10
47538.0004882813
 20
44900.8239746094
 30
0.0
 11
50096.61993877184
 21
45295.21516205469
 31
0.0
  0
LINE
  5
4C
330
1E
100
AcDbEntity
  8
LAY0_0
  6
Continuous
 62
     0
100
AcDbLine
 10
47577.5756835938
 20
45878.1677246094
 30
0.0
 11
47592.1569824219
 21
45693.3288574219
 31
0.0
  0
LINE
  5
4D
330
1E
100
AcDbEntity
  8
LAY0_0
  6
Continuous
 62
     0
100
AcDbLine
 10
47592.1569824219
 20
45693.3288574219
 30
0.0
 11
47678.5949707031
 21
45681.4025878906
 31
0.0
  0
LINE
  5
4E
330
1E
100
AcDbEntity
  8
LAY0_0
  6
Continuous
 62
     0
100
AcDbLine
 10
47577.5756835938
 20
45878.1677246094
 30
0.0
 11
47678.5949707031
 21
45904.5593261719
 31
0.0
  0
LINE
  5
4F
330
1E
100
AcDbEntity
  8
LAY0_0
  6
Continuous
 62
     0
100
AcDbLine
 10
47484.130859375
 20
45870.9533691406
 30
0.0
 11
47498.7121582031
 21
45686.1206054688
 31
0.0
  0
LINE
  5
50
330
1E
100
AcDbEntity
  8
LAY0_0
  6
Continuous
 62
     0
100
AcDbLine
 10
47484.130859375
 20
45870.9533691406
 30
0.0
 11
47203.7933349609
 21
45849.3286132813
 31
0.0
  0
LINE
  5
51
330
1E
100
AcDbEntity
  8
LAY0_0
  6
Continuous
 62
     0
100
AcDbLine
 10
47203.7933349609
 20
45849.3286132813
 30
0.0
 11
47024.1882324219
 21
45742.4865722656
 31
0.0
  0
LINE
  5
52
330
1E
100
AcDbEntity
  8
LAY0_0
  6
Continuous
 62
     0
100
AcDbLine
 10
47024.1882324219
 20
45742.4865722656
 30
0.0
 11
47218.3715820313
 21
45664.4897460938
 31
0.0
  0
LINE
  5
53
330
1E
100
AcDbEntity
  8
LAY0_0
  6
Continuous
 62
     0
100
AcDbLine
 10
47218.3715820313
 20
45664.4897460938
 30
0.0
 11
47498.7121582031
 21
45686.1206054688
 31
0.0
  0
LINE
  5
54
330
1E
100
AcDbEntity
  8
LAY0_0
  6
Continuous
 62
     0
100
AcDbLine
 10
47297.23815917969
 20
45856.5368652344
 30
0.0
 11
47339.65148925781
 21
46510.6811523438
 31
0.0
  0
LINE
  5
55
330
1E
100
AcDbEntity
  8
LAY0_0
  6
Continuous
 62
     0
100
AcDbLine
 10
47339.65148925781
 20
46510.6811523438
 30
0.0
 11
47484.130859375
 21
45870.9533691406
 31
0.0
  0
LINE
  5
56
330
1E
100
AcDbEntity
  8
LAY0_0
  6
Continuous
 62
     0
100
AcDbLine
 10
47498.7121582031
 20
45686.1206054688
 30
0.0
 11
47456.29577636719
 21
45031.9763183594
 31
0.0
  0
LINE
  5
57
330
1E
100
AcDbEntity
  8
LAY0_0
  6
Continuous
 62
     0
100
AcDbLine
 10
47456.29577636719
 20
45031.9763183594
 30
0.0
 11
47311.81945800781
 21
45671.6979980469
 31
0.0
  0
LINE
  5
58
330
1E
100
AcDbEntity
  8
LAY0_0
  6
Continuous
 62
     0
100
AcDbLine
 10
45288.4826660156
 20
48423.4252929688
 30
0.0
 11
45663.40026855469
 21
48423.4252929688
 31
0.0
  0
LINE
  5
59
330
1E
100
AcDbEntity
  8
LAY0_0
  6
Continuous
 62
     0
100
AcDbLine
 10
58606.0974121094
 20
40267.3706054688
 30
0.0
 11
59182.2387695313
 21
40267.3706054688
 31
0.0
  0
LINE
  5
5A
330
1E
100
AcDbEntity
  8
LAY0_0
  6
Continuous
 62
     0
100
AcDbLine
 10
59850.6530761719
 20
40022.4365234375
 30
0.0
 11
59339.8010253906
 21
40022.4365234375
 31
0.0
  0
LINE
  5
5B
330
1E
100
AcDbEntity
  8
LAY0_0
  6
Continuous
 62
     0
100
AcDbLine
 10
59814.4592285156
 20
41455.6030273438
 30
0.0
 11
58637.1215820313
 21
41455.6030273438
 31
0.0
  0
LINE
  5
5C
330
1E
100
AcDbEntity
  8
LAY0_0
  6
Continuous
 62
     0
100
AcDbLine
 10
58969.0063476563
 20
41071.1791992188
 30
0.0
 11
59019.7509765625
 21
41022.705078125
 31
0.0
  0
LINE
  5
5D
330
1E
100
AcDbEntity
  8
LAY0_0
  6
Continuous
 62
     0
100
AcDbLine
 10
59851.611328125
 20
41122.94921875
 30
0.0
 11
59851.611328125
 21
41071.1791992188
 31
0.0
  0
LINE
  5
5E
330
1E
100
AcDbEntity
  8
LAY0_0
  6
Continuous
 62
     0
100
AcDbLine
 10
59902.3559570313
 20
41022.705078125
 30
0.0
 11
59851.611328125
 21
41071.1791992188
 31
0.0
  0
LINE
  5
5F
330
1E
100
AcDbEntity
  8
LAY0_0
  6
Continuous
 62
     0
100
AcDbLine
 10
59182.2387695313
 20
40267.3706054688
 30
0.0
 11
59339.8010253906
 21
40022.4365234375
 31
0.0
  0
LINE
  5
60
330
1E
100
AcDbEntity
  8
LAY0_0
  6
Continuous
 62
     0
100
AcDbLine
 10
59902.3559570313
 20
40369.8181152344
 30
0.0
 11
59851.611328125
 21
40418.2983398438
 31
0.0
  0
LINE
  5
61
330
1E
100
AcDbEntity
  8
LAY0_0
  6
Continuous
 62
     0
100
AcDbLine
 10
58554.39453125
 20
41375.0732421875
 30
0.0
 11
58554.39453125
 21
41171.4233398438
 31
0.0
  0
LINE
  5
62
330
1E
100
AcDbEntity
  8
LAY0_0
  6
Continuous
 62
     0
100
AcDbLine
 10
59070.4956054688
 20
40470.0622558594
 30
0.0
 11
59434.3139648438
 21
40470.0622558594
 31
0.0
  0
LINE
  5
63
330
1E
100
AcDbEntity
  8
LAY0_0
  6
Continuous
 62
     0
100
AcDbLine
 10
59535.8093261719
 20
40470.0622558594
 30
0.0
 11
59851.611328125
 21
40470.0622558594
 31
0.0
  0
LINE
  5
64
330
1E
100
AcDbEntity
  8
LAY0_0
  6
Continuous
 62
     0
100
AcDbLine
 10
59535.8093261719
 20
41071.1791992188
 30
0.0
 11
59851.611328125
 21
41071.1791992188
 31
0.0
  0
LINE
  5
65
330
1E
100
AcDbEntity
  8
LAY0_0
  6
Continuous
 62
     0
100
AcDbLine
 10
59070.4956054688
 20
41071.1791992188
 30
0.0
 11
59434.3139648438
 21
41071.1791992188
 31
0.0
  0
LINE
  5
66
330
1E
100
AcDbEntity
  8
LAY0_0
  6
Continuous
 62
     0
100
AcDbLine
 10
59902.3559570313
 20
41171.4233398438
 30
0.0
 11
59851.611328125
 21
41122.94921875
 31
0.0
  0
LINE
  5
67
330
1E
100
AcDbEntity
  8
LAY0_0
  6
Continuous
 62
     0
100
AcDbLine
 10
59902.3559570313
 20
41370.0500488281
 30
0.0
 11
59902.3559570313
 21
41171.4233398438
 31
0.0
  0
LINE
  5
68
330
1E
100
AcDbEntity
  8
LAY0_0
  6
Continuous
 62
     0
100
AcDbLine
 10
59434.3139648438
 20
41071.1791992188
 30
0.0
 11
59485.0646972656
 21
41022.705078125
 31
0.0
  0
LINE
  5
69
330
1E
100
AcDbEntity
  8
LAY0_0
  6
Continuous
 62
     0
100
AcDbLine
 10
59485.0646972656
 20
41022.705078125
 30
0.0
 11
59485.0646972656
 21
40518.5363769531
 31
0.0
  0
LINE
  5
6A
330
1E
100
AcDbEntity
  8
LAY0_0
  6
Continuous
 62
     0
100
AcDbLine
 10
82766.6259765625
 20
27933.0322265625
 30
0.0
 11
83070.5871582031
 21
27933.0322265625
 31
0.0
  0
LINE
  5
6B
330
1E
100
AcDbEntity
  8
LAY0_0
  6
Continuous
 62
     0
100
AcDbLine
 10
82301.3122558594
 20
27933.0322265625
 30
0.0
 11
82665.1306152344
 21
27933.0322265625
 31
0.0
  0
LINE
  5
6C
330
1E
100
AcDbEntity
  8
LAY0_0
  6
Continuous
 62
     0
100
AcDbLine
 10
83121.3256835938
 20
28485.6811523438
 30
0.0
 11
83070.5871582031
 21
28534.1430664063
 31
0.0
  0
LINE
  5
6D
330
1E
100
AcDbEntity
  8
LAY0_0
  6
Continuous
 62
     0
100
AcDbLine
 10
81838.5986328125
 20
28485.6811523438
 30
0.0
 11
81889.3371582031
 21
28534.1430664063
 31
0.0
  0
LINE
  5
6E
330
1E
100
AcDbEntity
  8
LAY0_0
  6
Continuous
 62
     0
100
AcDbLine
 10
82665.1306152344
 20
28534.1430664063
 30
0.0
 11
82715.8752441406
 21
28485.6811523438
 31
0.0
  0
LINE
  5
6F
330
1E
100
AcDbEntity
  8
LAY0_0
  6
Continuous
 62
     0
100
AcDbLine
 10
82715.8752441406
 20
28485.6811523438
 30
0.0
 11
82766.6259765625
 21
28534.1430664063
 31
0.0
  0
LINE
  5
70
330
1E
100
AcDbEntity
  8
LAY0_0
  6
Continuous
 62
     0
100
AcDbLine
 10
82250.5615234375
 20
27981.5063476563
 30
0.0
 11
82250.5615234375
 21
28485.6811523438
 31
0.0
  0
LINE
  5
71
330
1E
100
AcDbEntity
  8
LAY0_0
  6
Continuous
 62
     0
100
AcDbLine
 10
82250.5615234375
 20
28485.6811523438
 30
0.0
 11
82301.3122558594
 21
28534.1430664063
 31
0.0
  0
LINE
  5
72
330
1E
100
AcDbEntity
  8
LAY0_0
  6
Continuous
 62
     0
100
AcDbLine
 10
82766.6259765625
 20
28534.1430664063
 30
0.0
 11
83070.5871582031
 21
28534.1430664063
 31
0.0
  0
LINE
  5
73
330
1E
100
AcDbEntity
  8
LAY0_0
  6
Continuous
 62
     0
100
AcDbLine
 10
59851.611328125
 20
40470.0622558594
 30
0.0
 11
59851.611328125
 21
40418.2983398438
 31
0.0
  0
LINE
  5
74
330
1E
100
AcDbEntity
  8
LAY0_0
  6
Continuous
 62
     0
100
AcDbLine
 10
58606.0974121094
 20
40267.3706054688
 30
0.0
 11
58554.39453125
 21
40317.7124023438
 31
0.0
  0
LINE
  5
75
330
1E
100
AcDbEntity
  8
LAY0_0
  6
Continuous
 62
     0
100
AcDbLine
 10
59485.0646972656
 20
41022.705078125
 30
0.0
 11
59535.8093261719
 21
41071.1791992188
 31
0.0
  0
LINE
  5
76
330
1E
100
AcDbEntity
  8
LAY0_0
  6
Continuous
 62
     0
100
AcDbLine
 10
59902.3559570313
 20
40369.8181152344
 30
0.0
 11
59902.3559570313
 21
40072.7661132813
 31
0.0
  0
LINE
  5
77
330
1E
100
AcDbEntity
  8
LAY0_0
  6
Continuous
 62
     0
100
AcDbLine
 10
81838.5986328125
 20
28634.3933105469
 30
0.0
 11
81889.3371582031
 21
28585.9252929688
 31
0.0
  0
LINE
  5
78
330
1E
100
AcDbEntity
  8
LAY0_0
  6
Continuous
 62
     0
100
AcDbLine
 10
82301.3122558594
 20
28534.1430664063
 30
0.0
 11
82665.1306152344
 21
28534.1430664063
 31
0.0
  0
LINE
  5
79
330
1E
100
AcDbEntity
  8
LAY0_0
  6
Continuous
 62
     0
100
AcDbLine
 10
59902.3559570313
 20
40072.7661132813
 30
0.0
 11
59850.6530761719
 21
40022.4365234375
 31
0.0
  0
LINE
  5
7A
330
1E
100
AcDbEntity
  8
LAY0_0
  6
Continuous
 62
     0
100
AcDbLine
 10
83121.3256835938
 20
28634.3933105469
 30
0.0
 11
83070.5810546875
 21
28585.9252929688
 31
0.0
  0
LINE
  5
7B
330
1E
100
AcDbEntity
  8
LAY0_0
  6
Continuous
 62
     0
100
AcDbLine
 10
59014.2456054688
 20
26979.2419433594
 30
0.0
 11
59064.990234375
 21
27027.7221679688
 31
0.0
  0
LINE
  5
7C
330
1E
100
AcDbEntity
  8
LAY0_0
  6
Continuous
 62
     0
100
AcDbLine
 10
58548.8891601563
 20
27127.9663085938
 30
0.0
 11
58548.8891601563
 21
27180.078125
 31
0.0
  0
LINE
  5
7D
330
1E
100
AcDbEntity
  8
LAY0_0
  6
Continuous
 62
     0
100
AcDbLine
 10
58600.5981445313
 20
27230.4138183594
 30
0.0
 11
59176.7333984375
 21
27230.4138183594
 31
0.0
  0
LINE
  5
7E
330
1E
100
AcDbEntity
  8
LAY0_0
  6
Continuous
 62
     0
100
AcDbLine
 10
59845.1477050781
 20
27475.341796875
 30
0.0
 11
59334.3017578125
 21
27475.341796875
 31
0.0
  0
LINE
  5
7F
330
1E
100
AcDbEntity
  8
LAY0_0
  6
Continuous
 62
     0
100
AcDbLine
 10
58554.39453125
 20
40518.5363769531
 30
0.0
 11
58605.1391601563
 21
40470.0622558594
 31
0.0
  0
LINE
  5
80
330
1E
100
AcDbEntity
  8
LAY0_0
  6
Continuous
 62
     0
100
AcDbLine
 10
58605.1391601563
 20
40470.0622558594
 30
0.0
 11
58969.0063476563
 21
40470.0622558594
 31
0.0
  0
LINE
  5
81
330
1E
100
AcDbEntity
  8
LAY0_0
  6
Continuous
 62
     0
100
AcDbLine
 10
58600.5981445313
 20
27230.4138183594
 30
0.0
 11
58548.8891601563
 21
27180.078125
 31
0.0
  0
LINE
  5
82
330
1E
100
AcDbEntity
  8
LAY0_0
  6
Continuous
 62
     0
100
AcDbLine
 10
59845.1477050781
 20
27475.341796875
 30
0.0
 11
59896.8566894531
 21
27425.0122070313
 31
0.0
  0
LINE
  5
83
330
1E
100
AcDbEntity
  8
LAY0_0
  6
Continuous
 62
     0
100
AcDbLine
 10
58963.5009765625
 20
27027.7221679688
 30
0.0
 11
59014.2456054688
 21
26979.2419433594
 31
0.0
  0
LINE
  5
84
330
1E
100
AcDbEntity
  8
LAY0_0
  6
Continuous
 62
     0
100
AcDbLine
 10
58599.6459960938
 20
27027.7221679688
 30
0.0
 11
58599.6459960938
 21
27079.4860839844
 31
0.0
  0
LINE
  5
85
330
1E
100
AcDbEntity
  8
LAY0_0
  6
Continuous
 62
     0
100
AcDbLine
 10
58599.6459960938
 20
27027.7221679688
 30
0.0
 11
58963.5009765625
 21
27027.7221679688
 31
0.0
  0
LINE
  5
86
330
1E
100
AcDbEntity
  8
LAY0_0
  6
Continuous
 62
     0
100
AcDbLine
 10
59896.8566894531
 20
26979.2419433594
 30
0.0
 11
59846.1120605469
 21
27027.7221679688
 31
0.0
  0
LINE
  5
87
330
1E
100
AcDbEntity
  8
LAY0_0
  6
Continuous
 62
     0
100
AcDbLine
 10
58548.8891601563
 20
26979.2419433594
 30
0.0
 11
58599.6459960938
 21
27027.7221679688
 31
0.0
  0
LINE
  5
88
330
1E
100
AcDbEntity
  8
LAY0_0
  6
Continuous
 62
     0
100
AcDbLine
 10
59530.3039550781
 20
27027.7221679688
 30
0.0
 11
59846.1120605469
 21
27027.7221679688
 31
0.0
  0
LINE
  5
89
330
1E
100
AcDbEntity
  8
LAY0_0
  6
Continuous
 62
     0
100
AcDbLine
 10
59176.7333984375
 20
27230.4138183594
 30
0.0
 11
59334.3017578125
 21
27475.341796875
 31
0.0
  0
LINE
  5
8A
330
1E
100
AcDbEntity
  8
LAY0_0
  6
Continuous
 62
     0
100
AcDbLine
 10
58548.8891601563
 20
27127.9663085938
 30
0.0
 11
58599.6459960938
 21
27079.4860839844
 31
0.0
  0
LINE
  5
8B
330
1E
100
AcDbEntity
  8
LAY0_0
  6
Continuous
 62
     0
100
AcDbLine
 10
59896.8566894531
 20
27127.9663085938
 30
0.0
 11
59896.8566894531
 21
27425.0122070313
 31
0.0
  0
LINE
  5
8C
330
1E
100
AcDbEntity
  8
LAY0_0
  6
Continuous
 62
     0
100
AcDbLine
 10
59019.7509765625
 20
40518.5363769531
 30
0.0
 11
59070.4956054688
 21
40470.0622558594
 31
0.0
  0
LINE
  5
8D
330
1E
100
AcDbEntity
  8
LAY0_0
  6
Continuous
 62
     0
100
AcDbLine
 10
59434.3139648438
 20
40470.0622558594
 30
0.0
 11
59485.0646972656
 21
40518.5363769531
 31
0.0
  0
LINE
  5
8E
330
1E
100
AcDbEntity
  8
LAY0_0
  6
Continuous
 62
     0
100
AcDbLine
 10
58554.39453125
 20
40369.8181152344
 30
0.0
 11
58554.39453125
 21
40317.7124023438
 31
0.0
  0
LINE
  5
8F
330
1E
100
AcDbEntity
  8
LAY0_0
  6
Continuous
 62
     0
100
AcDbLine
 10
59902.3559570313
 20
41022.705078125
 30
0.0
 11
59902.3559570313
 21
40518.5241699219
 31
0.0
  0
LINE
  5
90
330
1E
100
AcDbEntity
  8
LAY0_0
  6
Continuous
 62
     0
100
AcDbLine
 10
58969.0063476563
 20
40470.0622558594
 30
0.0
 11
59019.7509765625
 21
40518.5363769531
 31
0.0
  0
LINE
  5
91
330
1E
100
AcDbEntity
  8
LAY0_0
  6
Continuous
 62
     0
100
AcDbLine
 10
59902.3559570313
 20
40518.5241699219
 30
0.0
 11
59851.611328125
 21
40470.0622558594
 31
0.0
  0
LINE
  5
92
330
1E
100
AcDbEntity
  8
LAY0_0
  6
Continuous
 62
     0
100
AcDbLine
 10
59485.0646972656
 20
40518.5363769531
 30
0.0
 11
59535.8093261719
 21
40470.0622558594
 31
0.0
  0
LINE
  5
93
330
1E
100
AcDbEntity
  8
LAY0_0
  6
Continuous
 62
     0
100
AcDbLine
 10
59019.7509765625
 20
41022.705078125
 30
0.0
 11
59070.4956054688
 21
41071.1791992188
 31
0.0
  0
LINE
  5
94
330
1E
100
AcDbEntity
  8
LAY0_0
  6
Continuous
 62
     0
100
AcDbLine
 10
58554.39453125
 20
41022.705078125
 30
0.0
 11
58605.1391601563
 21
41071.1791992188
 31
0.0
  0
LINE
  5
95
330
1E
100
AcDbEntity
  8
LAY0_0
  6
Continuous
 62
     0
100
AcDbLine
 10
58605.1391601563
 20
41071.1791992188
 30
0.0
 11
58969.0063476563
 21
41071.1791992188
 31
0.0
  0
LINE
  5
96
330
1E
100
AcDbEntity
  8
LAY0_0
  6
Continuous
 62
     0
100
AcDbLine
 10
59019.7509765625
 20
41022.705078125
 30
0.0
 11
59019.7509765625
 21
40518.5363769531
 31
0.0
  0
LINE
  5
97
330
1E
100
AcDbEntity
  8
LAY0_0
  6
Continuous
 62
     0
100
AcDbLine
 10
58554.39453125
 20
40369.8181152344
 30
0.0
 11
58605.1391601563
 21
40418.2983398438
 31
0.0
  0
LINE
  5
98
330
1E
100
AcDbEntity
  8
LAY0_0
  6
Continuous
 62
     0
100
AcDbLine
 10
58605.1391601563
 20
40470.0622558594
 30
0.0
 11
58605.1391601563
 21
40418.2983398438
 31
0.0
  0
LINE
  5
99
330
1E
100
AcDbEntity
  8
LAY0_0
  6
Continuous
 62
     0
100
AcDbLine
 10
59902.3559570313
 20
41370.0500488281
 30
0.0
 11
59814.4592285156
 21
41455.6030273438
 31
0.0
  0
LINE
  5
9A
330
1E
100
AcDbEntity
  8
LAY0_0
  6
Continuous
 62
     0
100
AcDbLine
 10
58605.1391601563
 20
41122.94921875
 30
0.0
 11
58605.1391601563
 21
41071.1791992188
 31
0.0
  0
LINE
  5
9B
330
1E
100
AcDbEntity
  8
LAY0_0
  6
Continuous
 62
     0
100
AcDbLine
 10
58554.39453125
 20
41375.0732421875
 30
0.0
 11
58637.1215820313
 21
41455.6030273438
 31
0.0
  0
LINE
  5
9C
330
1E
100
AcDbEntity
  8
LAY0_0
  6
Continuous
 62
     0
100
AcDbLine
 10
58554.39453125
 20
41171.4233398438
 30
0.0
 11
58605.1391601563
 21
41122.94921875
 31
0.0
  0
LINE
  5
9D
330
1E
100
AcDbEntity
  8
LAY0_0
  6
Continuous
 62
     0
100
AcDbLine
 10
82250.5615234375
 20
27981.5063476563
 30
0.0
 11
82301.3122558594
 21
27933.0322265625
 31
0.0
  0
LINE
  5
9E
330
1E
100
AcDbEntity
  8
LAY0_0
  6
Continuous
 62
     0
100
AcDbLine
 10
83121.3256835938
 20
27140.9912109375
 30
0.0
 11
83070.5871582031
 21
27092.5231933594
 31
0.0
  0
LINE
  5
9F
330
1E
100
AcDbEntity
  8
LAY0_0
  6
Continuous
 62
     0
100
AcDbLine
 10
83070.5871582031
 20
27040.7409667969
 30
0.0
 11
83070.5871582031
 21
27092.5231933594
 31
0.0
  0
LINE
  5
A0
330
1E
100
AcDbEntity
  8
LAY0_0
  6
Continuous
 62
     0
100
AcDbLine
 10
83121.3256835938
 20
26944.0307617188
 30
0.0
 11
83121.3256835938
 21
26992.28515625
 31
0.0
  0
LINE
  5
A1
330
1E
100
AcDbEntity
  8
LAY0_0
  6
Continuous
 62
     0
100
AcDbLine
 10
83121.3256835938
 20
26992.28515625
 30
0.0
 11
83070.5871582031
 21
27040.7409667969
 31
0.0
  0
LINE
  5
A2
330
1E
100
AcDbEntity
  8
LAY0_0
  6
Continuous
 62
     0
100
AcDbLine
 10
81838.5986328125
 20
26992.2790527344
 30
0.0
 11
81889.3432617188
 21
27040.7409667969
 31
0.0
  0
LINE
  5
A3
330
1E
100
AcDbEntity
  8
LAY0_0
  6
Continuous
 62
     0
100
AcDbLine
 10
81889.3432617188
 20
27040.7409667969
 30
0.0
 11
81889.3432617188
 21
27092.5231933594
 31
0.0
  0
LINE
  5
A4
330
1E
100
AcDbEntity
  8
LAY0_0
  6
Continuous
 62
     0
100
AcDbLine
 10
81890.2954101563
 20
26893.6950683594
 30
0.0
 11
82254.6752929688
 21
26893.6950683594
 31
0.0
  0
LINE
  5
A5
330
1E
100
AcDbEntity
  8
LAY0_0
  6
Continuous
 62
     0
100
AcDbLine
 10
81838.5986328125
 20
26944.0185546875
 30
0.0
 11
81838.5986328125
 21
26992.2790527344
 31
0.0
  0
LINE
  5
A6
330
1E
100
AcDbEntity
  8
LAY0_0
  6
Continuous
 62
     0
100
AcDbLine
 10
82221.4477539063
 20
26861.9445800781
 30
0.0
 11
82305.419921875
 21
26942.1691894531
 31
0.0
  0
LINE
  5
A7
330
1E
100
AcDbEntity
  8
LAY0_0
  6
Continuous
 62
     0
100
AcDbLine
 10
82301.3122558594
 20
27693.6401367188
 30
0.0
 11
82665.1306152344
 21
27693.6401367188
 31
0.0
  0
LINE
  5
A8
330
1E
100
AcDbEntity
  8
LAY0_0
  6
Continuous
 62
     0
100
AcDbLine
 10
82665.1306152344
 20
27092.5231933594
 30
0.0
 11
82715.8752441406
 21
27140.9912109375
 31
0.0
  0
LINE
  5
A9
330
1E
100
AcDbEntity
  8
LAY0_0
  6
Continuous
 62
     0
100
AcDbLine
 10
82250.5615234375
 20
27140.9912109375
 30
0.0
 11
82301.3122558594
 21
27092.5231933594
 31
0.0
  0
LINE
  5
AA
330
1E
100
AcDbEntity
  8
LAY0_0
  6
Continuous
 62
     0
100
AcDbLine
 10
82199.8168945313
 20
27693.6401367188
 30
0.0
 11
82250.5615234375
 21
27645.166015625
 31
0.0
  0
LINE
  5
AB
330
1E
100
AcDbEntity
  8
LAY0_0
  6
Continuous
 62
     0
100
AcDbLine
 10
82715.8752441406
 20
27140.9912109375
 30
0.0
 11
82766.6259765625
 21
27092.5231933594
 31
0.0
  0
LINE
  5
AC
330
1E
100
AcDbEntity
  8
LAY0_0
  6
Continuous
 62
     0
100
AcDbLine
 10
82654.4921875
 20
26942.1691894531
 30
0.0
 11
82738.4887695313
 21
26861.9323730469
 31
0.0
  0
LINE
  5
AD
330
1E
100
AcDbEntity
  8
LAY0_0
  6
Continuous
 62
     0
100
AcDbLine
 10
82715.8752441406
 20
27140.9912109375
 30
0.0
 11
82715.8752441406
 21
27645.166015625
 31
0.0
  0
LINE
  5
AE
330
1E
100
AcDbEntity
  8
LAY0_0
  6
Continuous
 62
     0
100
AcDbLine
 10
82199.8168945313
 20
27092.5231933594
 30
0.0
 11
82250.5615234375
 21
27140.9912109375
 31
0.0
  0
LINE
  5
AF
330
1E
100
AcDbEntity
  8
LAY0_0
  6
Continuous
 62
     0
100
AcDbLine
 10
82333.984375
 20
29157.0922851563
 30
0.0
 11
81970.7702636719
 21
29157.0922851563
 31
0.0
  0
LINE
  5
B0
330
1E
100
AcDbEntity
  8
LAY0_0
  6
Continuous
 62
     0
100
AcDbLine
 10
81919.0673828125
 20
29106.7565917969
 30
0.0
 11
81919.0673828125
 21
28881.8481445313
 31
0.0
  0
LINE
  5
B1
330
1E
100
AcDbEntity
  8
LAY0_0
  6
Continuous
 62
     0
100
AcDbLine
 10
81919.0673828125
 20
28881.8481445313
 30
0.0
 11
82385.6872558594
 21
28881.8481445313
 31
0.0
  0
LINE
  5
B2
330
1E
100
AcDbEntity
  8
LAY0_0
  6
Continuous
 62
     0
100
AcDbLine
 10
82385.6872558594
 20
28881.8481445313
 30
0.0
 11
82385.6872558594
 21
29106.7565917969
 31
0.0
  0
LINE
  5
B3
330
1E
100
AcDbEntity
  8
LAY0_0
  6
Continuous
 62
     0
100
AcDbLine
 10
81838.5986328125
 20
26944.0185546875
 30
0.0
 11
81890.2954101563
 21
26893.6950683594
 31
0.0
  0
LINE
  5
B4
330
1E
100
AcDbEntity
  8
LAY0_0
  6
Continuous
 62
     0
100
AcDbLine
 10
83069.6533203125
 20
26893.6950683594
 30
0.0
 11
83121.3623046875
 21
26944.0307617188
 31
0.0
  0
LINE
  5
B5
330
1E
100
AcDbEntity
  8
LAY0_0
  6
Continuous
 62
     0
100
AcDbLine
 10
81838.5986328125
 20
28831.5124511719
 30
0.0
 11
81890.2954101563
 21
28881.8481445313
 31
0.0
  0
LINE
  5
B6
330
1E
100
AcDbEntity
  8
LAY0_0
  6
Continuous
 62
     0
100
AcDbLine
 10
83069.62890625
 20
28881.8481445313
 30
0.0
 11
83121.3256835938
 21
28831.5124511719
 31
0.0
  0
LINE
  5
B7
330
1E
100
AcDbEntity
  8
LAY0_0
  6
Continuous
 62
     0
100
AcDbLine
 10
83121.3256835938
 20
28831.5124511719
 30
0.0
 11
83121.3256835938
 21
28634.3933105469
 31
0.0
  0
LINE
  5
B8
330
1E
100
AcDbEntity
  8
LAY0_0
  6
Continuous
 62
     0
100
AcDbLine
 10
81889.3432617188
 20
27092.5231933594
 30
0.0
 11
82199.8168945313
 21
27092.5231933594
 31
0.0
  0
LINE
  5
B9
330
1E
100
AcDbEntity
  8
LAY0_0
  6
Continuous
 62
     0
100
AcDbLine
 10
82705.2368164063
 20
26893.6950683594
 30
0.0
 11
83069.6533203125
 21
26893.6950683594
 31
0.0
  0
LINE
  5
BA
330
1E
100
AcDbEntity
  8
LAY0_0
  6
Continuous
 62
     0
100
AcDbLine
 10
81838.5986328125
 20
27140.9912109375
 30
0.0
 11
81889.3432617188
 21
27092.5231933594
 31
0.0
  0
LINE
  5
BB
330
1E
100
AcDbEntity
  8
LAY0_0
  6
Continuous
 62
     0
100
AcDbLine
 10
81838.5986328125
 20
27645.166015625
 30
0.0
 11
81838.5986328125
 21
27140.9912109375
 31
0.0
  0
LINE
  5
BC
330
1E
100
AcDbEntity
  8
LAY0_0
  6
Continuous
 62
     0
100
AcDbLine
 10
81890.2954101563
 20
28881.8481445313
 30
0.0
 11
83069.62890625
 21
28881.8481445313
 31
0.0
  0
LINE
  5
BD
330
1E
100
AcDbEntity
  8
LAY0_0
  6
Continuous
 62
     0
100
AcDbLine
 10
83121.3256835938
 20
27645.166015625
 30
0.0
 11
83121.3256835938
 21
27140.9912109375
 31
0.0
  0
LINE
  5
BE
330
1E
100
AcDbEntity
  8
LAY0_0
  6
Continuous
 62
     0
100
AcDbLine
 10
82654.4921875
 20
26942.1691894531
 30
0.0
 11
82305.419921875
 21
26942.1691894531
 31
0.0
  0
LINE
  5
BF
330
1E
100
AcDbEntity
  8
LAY0_0
  6
Continuous
 62
     0
100
AcDbLine
 10
81838.5986328125
 20
28831.5124511719
 30
0.0
 11
81838.5986328125
 21
28634.3933105469
 31
0.0
  0
LINE
  5
C0
330
1E
100
AcDbEntity
  8
LAY0_0
  6
Continuous
 62
     0
100
AcDbLine
 10
83070.5810546875
 20
28534.1430664063
 30
0.0
 11
83070.5810546875
 21
28585.9252929688
 31
0.0
  0
LINE
  5
C1
330
1E
100
AcDbEntity
  8
LAY0_0
  6
Continuous
 62
     0
100
AcDbLine
 10
83121.3256835938
 20
28167.3217773438
 30
0.0
 11
83121.3256835938
 21
28485.6811523438
 31
0.0
  0
LINE
  5
C2
330
1E
100
AcDbEntity
  8
LAY0_0
  6
Continuous
 62
     0
100
AcDbLine
 10
81889.3371582031
 20
28534.1430664063
 30
0.0
 11
82199.8168945313
 21
28534.1430664063
 31
0.0
  0
LINE
  5
C3
330
1E
100
AcDbEntity
  8
LAY0_0
  6
Continuous
 62
     0
100
AcDbLine
 10
83121.3256835938
 20
28485.6811523438
 30
0.0
 11
83070.5810546875
 21
28534.1430664063
 31
0.0
  0
LINE
  5
C4
330
1E
100
AcDbEntity
  8
LAY0_0
  6
Continuous
 62
     0
100
AcDbLine
 10
83121.3256835938
 20
27981.5124511719
 30
0.0
 11
83070.5871582031
 21
27933.0322265625
 31
0.0
  0
LINE
  5
C5
330
1E
100
AcDbEntity
  8
LAY0_0
  6
Continuous
 62
     0
100
AcDbLine
 10
83070.5871582031
 20
27881.2561035156
 30
0.0
 11
83070.5871582031
 21
27933.0322265625
 31
0.0
  0
LINE
  5
C6
330
1E
100
AcDbEntity
  8
LAY0_0
  6
Continuous
 62
     0
100
AcDbLine
 10
81889.3371582031
 20
28534.1430664063
 30
0.0
 11
81889.3371582031
 21
28585.9252929688
 31
0.0
  0
LINE
  5
C7
330
1E
100
AcDbEntity
  8
LAY0_0
  6
Continuous
 62
     0
100
AcDbLine
 10
81838.5986328125
 20
27981.5063476563
 30
0.0
 11
81838.5986328125
 21
28485.6811523438
 31
0.0
  0
LINE
  5
C8
330
1E
100
AcDbEntity
  8
LAY0_0
  6
Continuous
 62
     0
100
AcDbLine
 10
83121.3256835938
 20
28485.6811523438
 30
0.0
 11
83121.3256835938
 21
27981.5124511719
 31
0.0
  0
LINE
  5
C9
330
1E
100
AcDbEntity
  8
LAY0_0
  6
Continuous
 62
     0
100
AcDbLine
 10
82665.1306152344
 20
27933.0322265625
 30
0.0
 11
82715.8752441406
 21
27981.5063476563
 31
0.0
  0
LINE
  5
CA
330
1E
100
AcDbEntity
  8
LAY0_0
  6
Continuous
 62
     0
100
AcDbLine
 10
82715.8752441406
 20
27981.5063476563
 30
0.0
 11
82715.8752441406
 21
28485.6811523438
 31
0.0
  0
LINE
  5
CB
330
1E
100
AcDbEntity
  8
LAY0_0
  6
Continuous
 62
     0
100
AcDbLine
 10
82199.8168945313
 20
28534.1430664063
 30
0.0
 11
82250.5615234375
 21
28485.6811523438
 31
0.0
  0
LINE
  5
CC
330
1E
100
AcDbEntity
  8
LAY0_0
  6
Continuous
 62
     0
100
AcDbLine
 10
82301.3122558594
 20
28534.1430664063
 30
0.0
 11
82665.1306152344
 21
28534.1430664063
 31
0.0
  0
LINE
  5
CD
330
1E
100
AcDbEntity
  8
LAY0_0
  6
Continuous
 62
     0
100
AcDbLine
 10
81838.5986328125
 20
27981.5063476563
 30
0.0
 11
81889.3432617188
 21
27933.0322265625
 31
0.0
  0
LINE
  5
CE
330
1E
100
AcDbEntity
  8
LAY0_0
  6
Continuous
 62
     0
100
AcDbLine
 10
81889.3432617188
 20
27933.0322265625
 30
0.0
 11
82199.8168945313
 21
27933.0322265625
 31
0.0
  0
LINE
  5
CF
330
1E
100
AcDbEntity
  8
LAY0_0
  6
Continuous
 62
     0
100
AcDbLine
 10
82199.8168945313
 20
27933.0322265625
 30
0.0
 11
82250.5615234375
 21
27981.5063476563
 31
0.0
  0
LINE
  5
D0
330
1E
100
AcDbEntity
  8
LAY0_0
  6
Continuous
 62
     0
100
AcDbLine
 10
82715.8752441406
 20
27981.5063476563
 30
0.0
 11
82766.6259765625
 21
27933.0322265625
 31
0.0
  0
LINE
  5
D1
330
1E
100
AcDbEntity
  8
LAY0_0
  6
Continuous
 62
     0
100
AcDbLine
 10
82766.6259765625
 20
27092.5231933594
 30
0.0
 11
83070.5871582031
 21
27092.5231933594
 31
0.0
  0
LINE
  5
D2
330
1E
100
AcDbEntity
  8
LAY0_0
  6
Continuous
 62
     0
100
AcDbLine
 10
82301.3122558594
 20
27092.5231933594
 30
0.0
 11
82665.1306152344
 21
27092.5231933594
 31
0.0
  0
LINE
  5
D3
330
1E
100
AcDbEntity
  8
LAY0_0
  6
Continuous
 62
     0
100
AcDbLine
 10
81889.3371582031
 20
27693.6401367188
 30
0.0
 11
81889.3371582031
 21
27745.4162597656
 31
0.0
  0
LINE
  5
D4
330
1E
100
AcDbEntity
  8
LAY0_0
  6
Continuous
 62
     0
100
AcDbLine
 10
81838.5986328125
 20
27793.8842773438
 30
0.0
 11
81838.5986328125
 21
27832.7880859375
 31
0.0
  0
LINE
  5
D5
330
1E
100
AcDbEntity
  8
LAY0_0
  6
Continuous
 62
     0
100
AcDbLine
 10
82665.1306152344
 20
27693.6401367188
 30
0.0
 11
82715.8752441406
 21
27645.166015625
 31
0.0
  0
LINE
  5
D6
330
1E
100
AcDbEntity
  8
LAY0_0
  6
Continuous
 62
     0
100
AcDbLine
 10
82715.8752441406
 20
27645.166015625
 30
0.0
 11
82766.6259765625
 21
27693.6401367188
 31
0.0
  0
LINE
  5
D7
330
1E
100
AcDbEntity
  8
LAY0_0
  6
Continuous
 62
     0
100
AcDbLine
 10
82250.5615234375
 20
27140.9912109375
 30
0.0
 11
82250.5615234375
 21
27645.166015625
 31
0.0
  0
LINE
  5
D8
330
1E
100
AcDbEntity
  8
LAY0_0
  6
Continuous
 62
     0
100
AcDbLine
 10
82250.5615234375
 20
27645.166015625
 30
0.0
 11
82301.3122558594
 21
27693.6401367188
 31
0.0
  0
LINE
  5
D9
330
1E
100
AcDbEntity
  8
LAY0_0
  6
Continuous
 62
     0
100
AcDbLine
 10
81838.5986328125
 20
27793.8842773438
 30
0.0
 11
81889.3371582031
 21
27745.4162597656
 31
0.0
  0
LINE
  5
DA
330
1E
100
AcDbEntity
  8
LAY0_0
  6
Continuous
 62
     0
100
AcDbLine
 10
83121.3256835938
 20
27645.166015625
 30
0.0
 11
83070.5871582031
 21
27693.6401367188
 31
0.0
  0
LINE
  5
DB
330
1E
100
AcDbEntity
  8
LAY0_0
  6
Continuous
 62
     0
100
AcDbLine
 10
83121.3256835938
 20
27793.8842773438
 30
0.0
 11
83070.5871582031
 21
27745.4040527344
 31
0.0
  0
LINE
  5
DC
330
1E
100
AcDbEntity
  8
LAY0_0
  6
Continuous
 62
     0
100
AcDbLine
 10
82301.3122558594
 20
27693.6401367188
 30
0.0
 11
82665.1306152344
 21
27693.6401367188
 31
0.0
  0
LINE
  5
DD
330
1E
100
AcDbEntity
  8
LAY0_0
  6
Continuous
 62
     0
100
AcDbLine
 10
82766.6259765625
 20
27693.6401367188
 30
0.0
 11
83070.5871582031
 21
27693.6401367188
 31
0.0
  0
LINE
  5
DE
330
1E
100
AcDbEntity
  8
LAY0_0
  6
Continuous
 62
     0
100
AcDbLine
 10
83121.3256835938
 20
27793.8842773438
 30
0.0
 11
83121.3256835938
 21
27832.7819824219
 31
0.0
  0
LINE
  5
DF
330
1E
100
AcDbEntity
  8
LAY0_0
  6
Continuous
 62
     0
100
AcDbLine
 10
81838.5986328125
 20
27645.166015625
 30
0.0
 11
81889.3371582031
 21
27693.6401367188
 31
0.0
  0
LINE
  5
E0
330
1E
100
AcDbEntity
  8
LAY0_0
  6
Continuous
 62
     0
100
AcDbLine
 10
83070.5871582031
 20
27693.6401367188
 30
0.0
 11
83070.5871582031
 21
27745.4040527344
 31
0.0
  0
LINE
  5
E1
330
1E
100
AcDbEntity
  8
LAY0_0
  6
Continuous
 62
     0
100
AcDbLine
 10
83121.3256835938
 20
27832.7819824219
 30
0.0
 11
83070.5871582031
 21
27881.2561035156
 31
0.0
  0
LINE
  5
E2
330
1E
100
AcDbEntity
  8
LAY0_0
  6
Continuous
 62
     0
100
AcDbLine
 10
53163.6962890625
 20
45937.1826171875
 30
0.0
 11
87699.2919921875
 21
45937.1826171875
 31
0.0
  0
LINE
  5
E3
330
1E
100
AcDbEntity
  8
LAY0_0
  6
Continuous
 62
     0
100
AcDbLine
 10
49133.88671875
 20
51841.9494628906
 30
0.0
 11
49133.88671875
 21
51127.6550292969
 31
0.0
  0
LINE
  5
E5
330
1E
100
AcDbEntity
  8
LAY0_0
  6
Continuous
 62
     0
100
AcDbLine
 10
48820.5383300781
 20
51841.9494628906
 30
0.0
 11
48820.5383300781
 21
53351.7395019531
 31
0.0
  0
LINE
  5
E6
330
1E
100
AcDbEntity
  8
LAY0_0
  6
Continuous
 62
     0
100
AcDbLine
 10
47944.6960449219
 20
51841.9494628906
 30
0.0
 11
47944.6960449219
 21
51127.6550292969
 31
0.0
  0
LINE
  5
E7
330
1E
100
AcDbEntity
  8
LAY0_0
  6
Continuous
 62
     0
100
AcDbLine
 10
59730.126953125
 20
55699.0905761719
 30
0.0
 11
59653.60570827143
 21
54661.94555584534
 31
0.0
  0
LINE
  5
E8
330
1E
100
AcDbEntity
  8
LAY0_0
  6
Continuous
 62
     0
100
AcDbLine
 10
59781.8298339844
 20
51127.6550292969
 30
0.0
 11
59781.8298339844
 21
54066.0339355469
 31
0.0
  0
LINE
  5
E9
330
1E
100
AcDbEntity
  8
LAY0_0
  6
Continuous
 62
     0
100
AcDbLine
 10
47476.2329101563
 20
51841.9494628906
 30
0.0
 11
61879.60205078131
 21
51841.9494628906
 31
0.0
  0
LINE
  5
EA
330
1E
100
AcDbEntity
  8
LAY0_0
  6
Continuous
 62
     0
100
AcDbLine
 10
53008.5815429688
 20
55222.8942871094
 30
0.0
 11
53008.5815429688
 21
54984.8083496094
 31
0.0
  0
LINE
  5
EB
330
1E
100
AcDbEntity
  8
LAY0_0
  6
Continuous
 62
     0
100
AcDbLine
 10
59631.58663932435
 20
54363.47107419108
 30
0.0
 11
59114.4165039063
 21
53351.7395019531
 31
0.0
  0
LINE
  5
ED
330
1E
100
AcDbEntity
  8
LAY0_0
  6
Continuous
 62
     0
100
AcDbLine
 10
53008.5815429688
 20
55080.0415039063
 30
0.0
 11
54818.2250976563
 21
55080.0415039063
 31
0.0
  0
LINE
  5
EE
330
1E
100
AcDbEntity
  8
LAY0_0
  6
Continuous
 62
     0
100
AcDbLine
 10
47476.2329101563
 20
51484.8083496094
 30
0.0
 11
50113.1500244141
 21
51484.8083496094
 31
0.0
  0
LINE
  5
EF
330
1E
100
AcDbEntity
  8
LAY0_0
  6
Continuous
 62
     0
100
AcDbLine
 10
61931.29882812501
 20
48651.4770507813
 30
0.0
 11
79532.8247070313
 21
48651.4770507813
 31
0.0
  0
LINE
  5
F1
330
1E
100
AcDbEntity
  8
LAY0_0
  6
Continuous
 62
     0
100
AcDbLine
 10
52179.4921875
 20
52749.1760253906
 30
0.0
 11
52179.4921875
 21
52080.3283691406
 31
0.0
  0
LINE
  5
F2
330
1E
100
AcDbEntity
  8
LAY0_0
  6
Continuous
 62
     0
100
AcDbLine
 10
56721.5393066406
 20
50603.8513183594
 30
0.0
 11
55724.7436523438
 21
50603.8513183594
 31
0.0
  0
LINE
  5
F3
330
1E
100
AcDbEntity
  8
LAY0_0
  6
Continuous
 62
     0
100
AcDbLine
 10
58720.7946777344
 20
49689.0686035156
 30
0.0
 11
58554.39453125
 21
49689.0686035156
 31
0.0
  0
LINE
  5
F4
330
1E
100
AcDbEntity
  8
LAY0_0
  6
Continuous
 62
     0
100
AcDbLine
 10
55724.7436523438
 20
50603.8513183594
 30
0.0
 11
55724.7436523438
 21
50077.5756835938
 31
0.0
  0
LINE
  5
F5
330
1E
100
AcDbEntity
  8
LAY0_0
  6
Continuous
 62
     0
100
AcDbLine
 10
56223.14453125
 20
50077.5756835938
 30
0.0
 11
56223.14453125
 21
50603.8513183594
 31
0.0
  0
LINE
  5
F6
330
1E
100
AcDbEntity
  8
LAY0_0
  6
Continuous
 62
     0
100
AcDbLine
 10
48200.0915527344
 20
53351.7395019531
 30
0.0
 11
48200.0915527344
 21
51841.9494628906
 31
0.0
  0
LINE
  5
F8
330
1E
100
AcDbEntity
  8
LAY0_0
  6
Continuous
 62
     0
100
AcDbLine
 10
51199.3347167969
 20
52749.1760253906
 30
0.0
 11
52179.4921875
 21
52749.1760253906
 31
0.0
  0
LINE
  5
FA
330
1E
100
AcDbEntity
  8
LAY0_0
  6
Continuous
 62
     0
100
AcDbLine
 10
52212.2619628906
 20
50464.4836425781
 30
0.0
 11
52691.2902832031
 21
50464.4836425781
 31
0.0
  0
LINE
  5
FB
330
1E
100
AcDbEntity
  8
LAY0_0
  6
Continuous
 62
     0
100
AcDbLine
 10
51198.9349365234
 20
51841.9494628906
 30
0.0
 11
51198.9349365234
 21
51127.6550292969
 31
0.0
  0
LINE
  5
FC
330
1E
100
AcDbEntity
  8
LAY0_0
  6
Continuous
 62
     0
100
AcDbLine
 10
59570.8374023438
 20
50034.1125488281
 30
0.0
 11
60028.2104492188
 21
50034.1125488281
 31
0.0
  0
LINE
  5
FD
330
1E
100
AcDbEntity
  8
LAY0_0
  6
Continuous
 62
     0
100
AcDbLine
 10
48200.0915527344
 20
52413.37890625
 30
0.0
 11
48820.5383300781
 21
52413.37890625
 31
0.0
  0
LINE
  5
FE
330
1E
100
AcDbEntity
  8
LAY0_0
  6
Continuous
 62
     0
100
AcDbLine
 10
60028.2104492188
 20
48889.5690917969
 30
0.0
 11
60028.2104492188
 21
50889.5629882813
 31
0.0
  0
LINE
  5
FF
330
1E
100
AcDbEntity
  8
LAY0_0
  6
Continuous
 62
     0
100
AcDbLine
 10
55724.7436523438
 20
50077.5756835938
 30
0.0
 11
56721.5393066406
 21
50077.5756835938
 31
0.0
  0
LINE
  5
100
330
1E
100
AcDbEntity
  8
LAY0_0
  6
Continuous
 62
     0
100
AcDbLine
 10
52691.2902832031
 20
50178.5400390625
 30
0.0
 11
52212.2619628906
 21
50178.5400390625
 31
0.0
  0
LINE
  5
101
330
1E
100
AcDbEntity
  8
LAY0_0
  6
Continuous
 62
     0
100
AcDbLine
 10
60453.9794921875
 20
50889.5629882813
 30
0.0
 11
60453.9794921875
 21
51127.6550292969
 31
0.0
  0
LINE
  5
102
330
1E
100
AcDbEntity
  8
LAY0_0
  6
Continuous
 62
     0
100
AcDbLine
 10
50113.1500244141
 20
51841.9494628906
 30
0.0
 11
50113.1500244141
 21
51127.6550292969
 31
0.0
  0
LINE
  5
103
330
1E
100
AcDbEntity
  8
LAY0_0
  6
CENTER
 62
     0
 48
1000.0
100
AcDbLine
 10
67640.869140625
 20
48651.4770507813
 30
0.0
 11
67640.869140625
 21
45937.1826171875
 31
0.0
  0
LINE
  5
104
330
1E
100
AcDbEntity
  8
LAY0_0
  6
Continuous
 62
     0
100
AcDbLine
 10
50463.04016113281
 20
57786.8041992188
 30
0.0
 11
50624.63073730469
 21
57786.8041992188
 31
0.0
  0
LINE
  5
105
330
1E
100
AcDbEntity
  8
LAY0_0
  6
Continuous
 62
     0
100
AcDbLine
 10
53094.4152832031
 20
57198.7487792969
 30
0.0
 11
53172.1862792969
 21
57198.7487792969
 31
0.0
  0
LINE
  5
106
330
1E
100
AcDbEntity
  8
LAY0_0
  6
Continuous
 62
     0
100
AcDbLine
 10
53163.6962890625
 20
51484.8083496094
 30
0.0
 11
54146.0693359375
 21
51484.8083496094
 31
0.0
  0
LINE
  5
107
330
1E
100
AcDbEntity
  8
LAY0_0
  6
Continuous
 62
     0
100
AcDbLine
 10
58075.5920410156
 20
51841.9494628906
 30
0.0
 11
58075.5920410156
 21
51127.6550292969
 31
0.0
  0
LINE
  5
108
330
1E
100
AcDbEntity
  8
LAY0_0
  6
Continuous
 62
     0
100
AcDbLine
 10
59407.7514648438
 20
50748.4008789063
 30
0.0
 11
60028.2104492188
 21
50748.4008789063
 31
0.0
  0
LINE
  5
109
330
1E
100
AcDbEntity
  8
LAY0_0
  6
Continuous
 62
     0
100
AcDbLine
 10
50509.20104980469
 20
57901.3977050781
 30
0.0
 11
50586.9781494141
 21
57901.3977050781
 31
0.0
  0
LINE
  5
10A
330
1E
100
AcDbEntity
  8
LAY0_0
  6
Continuous
 62
     0
100
AcDbLine
 10
52775.7568359375
 20
49365.5151367188
 30
0.0
 11
52775.7568359375
 21
50565.1428222656
 31
0.0
  0
LINE
  5
10B
330
1E
100
AcDbEntity
  8
LAY0_0
  6
Continuous
 62
     0
100
AcDbLine
 10
53094.4152832031
 20
56448.3825683594
 30
0.0
 11
53172.1862792969
 21
56448.3825683594
 31
0.0
  0
LINE
  5
10C
330
1E
100
AcDbEntity
  8
LAY0_0
  6
Continuous
 62
     0
100
AcDbLine
 10
50509.20104980469
 20
57786.8041992188
 30
0.0
 11
50509.20104980469
 21
57901.3977050781
 31
0.0
  0
LINE
  5
10D
330
1E
100
AcDbEntity
  8
LAY0_0
  6
Continuous
 62
     0
100
AcDbLine
 10
50586.9781494141
 20
56841.4245605469
 30
0.0
 11
50586.9781494141
 21
56726.8371582031
 31
0.0
  0
LINE
  5
10E
330
1E
100
AcDbEntity
  8
LAY0_0
  6
Continuous
 62
     0
100
AcDbLine
 10
47476.2329101563
 20
51841.9494628906
 30
0.0
 11
51198.9349365234
 21
51841.9494628906
 31
0.0
  0
LINE
  5
10F
330
1E
100
AcDbEntity
  8
LAY0_0
  6
Continuous
 62
     0
100
AcDbLine
 10
77727.5085449219
 20
57626.7883300781
 30
0.0
 11
77653.6193847656
 21
57743.4143066406
 31
0.0
  0
LINE
  5
110
330
1E
100
AcDbEntity
  8
LAY0_0
  6
Continuous
 62
     0
100
AcDbLine
 10
54714.8193359375
 20
50077.5756835938
 30
0.0
 11
54714.8193359375
 21
50603.8513183594
 31
0.0
  0
LINE
  5
111
330
1E
100
AcDbEntity
  8
LAY0_0
  6
Continuous
 62
     0
100
AcDbLine
 10
86876.0192871094
 20
49699.3835449219
 30
0.0
 11
86876.0192871094
 21
49318.1335449219
 31
0.0
  0
LINE
  5
112
330
1E
100
AcDbEntity
  8
LAY0_0
  6
Continuous
 62
     0
100
AcDbLine
 10
54714.8193359375
 20
50603.8513183594
 30
0.0
 11
53718.017578125
 21
50603.8513183594
 31
0.0
  0
LINE
  5
113
330
1E
100
AcDbEntity
  8
LAY0_0
  6
Continuous
 62
     0
100
AcDbLine
 10
48200.0915527344
 20
52651.4709472656
 30
0.0
 11
48820.5383300781
 21
52651.4709472656
 31
0.0
  0
LINE
  5
114
330
1E
100
AcDbEntity
  8
LAY0_0
  6
Continuous
 62
     0
100
AcDbLine
 10
53262.8173828125
 20
52749.1760253906
 30
0.0
 11
54242.9809570313
 21
52749.1760253906
 31
0.0
  0
LINE
  5
115
330
1E
100
AcDbEntity
  8
LAY0_0
  6
Continuous
 62
     0
100
AcDbLine
 10
60092.0532226563
 20
52032.421875
 30
0.0
 11
59988.6474609375
 21
55699.0905761719
 31
0.0
  0
LINE
  5
116
330
1E
100
AcDbEntity
  8
LAY0_0
  6
Continuous
 62
     0
100
AcDbLine
 10
53262.8173828125
 20
52080.3283691406
 30
0.0
 11
53262.8173828125
 21
52749.1760253906
 31
0.0
  0
LINE
  5
117
330
1E
100
AcDbEntity
  8
LAY0_0
  6
Continuous
 62
     0
100
AcDbLine
 10
56067.919921875
 20
52789.7705078125
 30
0.0
 11
56067.919921875
 21
52503.8146972656
 31
0.0
  0
LINE
  5
118
330
1E
100
AcDbEntity
  8
LAY0_0
  6
Continuous
 62
     0
100
AcDbLine
 10
51689.4165039063
 20
52080.3283691406
 30
0.0
 11
51689.4165039063
 21
52749.1760253906
 31
0.0
  0
LINE
  5
119
330
1E
100
AcDbEntity
  8
LAY0_0
  6
Continuous
 62
     0
100
AcDbLine
 10
57697.2106933594
 20
52080.3283691406
 30
0.0
 11
57697.2106933594
 21
52749.1760253906
 31
0.0
  0
LINE
  5
11A
330
1E
100
AcDbEntity
  8
LAY0_0
  6
Continuous
 62
     0
100
AcDbLine
 10
48200.0915527344
 20
53351.7395019531
 30
0.0
 11
48200.0915527344
 21
54066.0339355469
 31
0.0
  0
LINE
  5
11C
330
1E
100
AcDbEntity
  8
LAY0_0
  6
Continuous
 62
     0
100
AcDbLine
 10
57207.12890625
 20
52080.3283691406
 30
0.0
 11
57207.12890625
 21
52749.1760253906
 31
0.0
  0
LINE
  5
11D
330
1E
100
AcDbEntity
  8
LAY0_0
  6
Continuous
 62
     0
100
AcDbLine
 10
57093.212890625
 20
51841.9494628906
 30
0.0
 11
57093.212890625
 21
51127.6550292969
 31
0.0
  0
LINE
  5
11E
330
1E
100
AcDbEntity
  8
LAY0_0
  6
Continuous
 62
     0
100
AcDbLine
 10
57093.212890625
 20
51484.8083496094
 30
0.0
 11
58075.5920410156
 21
51484.8083496094
 31
0.0
  0
LINE
  5
11F
330
1E
100
AcDbEntity
  8
LAY0_0
  6
Continuous
 62
     0
100
AcDbLine
 10
58187.2863769531
 20
52749.1760253906
 30
0.0
 11
58187.2863769531
 21
52080.3283691406
 31
0.0
  0
LINE
  5
120
330
1E
100
AcDbEntity
  8
LAY0_0
  6
Continuous
 62
     0
100
AcDbLine
 10
51199.3347167969
 20
52080.3283691406
 30
0.0
 11
51199.3347167969
 21
52749.1760253906
 31
0.0
  0
LINE
  5
121
330
1E
100
AcDbEntity
  8
LAY0_0
  6
Continuous
 62
     0
100
AcDbLine
 10
45925.1037597656
 20
48889.5690917969
 30
0.0
 11
61879.60205078131
 21
48889.5690917969
 31
0.0
  0
LINE
  5
122
330
1E
100
AcDbEntity
  8
LAY0_0
  6
Continuous
 62
     0
100
AcDbLine
 10
47269.8425292969
 20
49206.0119628906
 30
0.0
 11
47269.8425292969
 21
48889.5690917969
 31
0.0
  0
LINE
  5
123
330
1E
100
AcDbEntity
  8
LAY0_0
  6
Continuous
 62
     0
100
AcDbLine
 10
54242.9809570313
 20
52749.1760253906
 30
0.0
 11
54242.9809570313
 21
52080.3283691406
 31
0.0
  0
LINE
  5
124
330
1E
100
AcDbEntity
  8
LAY0_0
  6
Continuous
 62
     0
100
AcDbLine
 10
55588.8916015625
 20
52789.7705078125
 30
0.0
 11
56067.919921875
 21
52789.7705078125
 31
0.0
  0
LINE
  5
125
330
1E
100
AcDbEntity
  8
LAY0_0
  6
Continuous
 62
     0
100
AcDbLine
 10
59902.3559570313
 20
48889.5690917969
 30
0.0
 11
59902.3559570313
 21
49689.0686035156
 31
0.0
  0
LINE
  5
126
330
1E
100
AcDbEntity
  8
LAY0_0
  6
Continuous
 62
     0
100
AcDbLine
 10
59896.8566894531
 20
26475.0793457031
 30
0.0
 11
59846.1120605469
 21
26426.611328125
 31
0.0
  0
LINE
  5
127
330
1E
100
AcDbEntity
  8
LAY0_0
  6
Continuous
 62
     0
100
AcDbLine
 10
59846.1120605469
 20
26374.8413085938
 30
0.0
 11
59846.1120605469
 21
26426.611328125
 31
0.0
  0
LINE
  5
128
330
1E
100
AcDbEntity
  8
LAY0_0
  6
Continuous
 62
     0
100
AcDbLine
 10
59896.8566894531
 20
26127.734375
 30
0.0
 11
59896.8566894531
 21
26326.3671875
 31
0.0
  0
LINE
  5
129
330
1E
100
AcDbEntity
  8
LAY0_0
  6
Continuous
 62
     0
100
AcDbLine
 10
59896.8566894531
 20
26326.3671875
 30
0.0
 11
59846.1120605469
 21
26374.8413085938
 31
0.0
  0
LINE
  5
12A
330
1E
100
AcDbEntity
  8
LAY0_0
  6
Continuous
 62
     0
100
AcDbLine
 10
59479.5593261719
 20
26475.0793457031
 30
0.0
 11
59479.5593261719
 21
26979.2419433594
 31
0.0
  0
LINE
  5
12B
330
1E
100
AcDbEntity
  8
LAY0_0
  6
Continuous
 62
     0
100
AcDbLine
 10
58599.6459960938
 20
26426.611328125
 30
0.0
 11
58963.5070800781
 21
26426.611328125
 31
0.0
  0
LINE
  5
12C
330
1E
100
AcDbEntity
  8
LAY0_0
  6
Continuous
 62
     0
100
AcDbLine
 10
59479.5593261719
 20
26475.0793457031
 30
0.0
 11
59530.3039550781
 21
26426.611328125
 31
0.0
  0
LINE
  5
12D
330
1E
100
AcDbEntity
  8
LAY0_0
  6
Continuous
 62
     0
100
AcDbLine
 10
59428.80859375
 20
26426.611328125
 30
0.0
 11
59479.5593261719
 21
26475.0793457031
 31
0.0
  0
LINE
  5
12E
330
1E
100
AcDbEntity
  8
LAY0_0
  6
Continuous
 62
     0
100
AcDbLine
 10
59808.9538574219
 20
26042.1691894531
 30
0.0
 11
58631.6223144531
 21
26042.1691894531
 31
0.0
  0
LINE
  5
12F
330
1E
100
AcDbEntity
  8
LAY0_0
  6
Continuous
 62
     0
100
AcDbLine
 10
58548.8891601563
 20
26122.705078125
 30
0.0
 11
58631.6223144531
 21
26042.1691894531
 31
0.0
  0
LINE
  5
130
330
1E
100
AcDbEntity
  8
LAY0_0
  6
Continuous
 62
     0
100
AcDbLine
 10
58548.8891601563
 20
26326.3610839844
 30
0.0
 11
58599.6459960938
 21
26374.8413085938
 31
0.0
  0
LINE
  5
131
330
1E
100
AcDbEntity
  8
LAY0_0
  6
Continuous
 62
     0
100
AcDbLine
 10
82221.4477539063
 20
26599.4567871094
 30
0.0
 11
82221.4477539063
 21
26861.9445800781
 31
0.0
  0
LINE
  5
132
330
1E
100
AcDbEntity
  8
LAY0_0
  6
Continuous
 62
     0
100
AcDbLine
 10
82273.14453125
 20
26549.12109375
 30
0.0
 11
82686.7858886719
 21
26549.12109375
 31
0.0
  0
LINE
  5
133
330
1E
100
AcDbEntity
  8
LAY0_0
  6
Continuous
 62
     0
100
AcDbLine
 10
59014.2456054688
 20
26475.0793457031
 30
0.0
 11
59014.2456054688
 21
26979.2419433594
 31
0.0
  0
LINE
  5
134
330
1E
100
AcDbEntity
  8
LAY0_0
  6
Continuous
 62
     0
100
AcDbLine
 10
59014.2456054688
 20
26475.0793457031
 30
0.0
 11
59065.0024414063
 21
26426.611328125
 31
0.0
  0
LINE
  5
135
330
1E
100
AcDbEntity
  8
LAY0_0
  6
Continuous
 62
     0
100
AcDbLine
 10
58548.8891601563
 20
26122.705078125
 30
0.0
 11
58548.8891601563
 21
26326.3610839844
 31
0.0
  0
LINE
  5
136
330
1E
100
AcDbEntity
  8
LAY0_0
  6
Continuous
 62
     0
100
AcDbLine
 10
58548.8891601563
 20
26475.0793457031
 30
0.0
 11
58548.8891601563
 21
26979.2419433594
 31
0.0
  0
LINE
  5
137
330
1E
100
AcDbEntity
  8
LAY0_0
  6
Continuous
 62
     0
100
AcDbLine
 10
48665.4418945313
 20
30701.3732910156
 30
0.0
 11
48665.4357910156
 21
27460.0830078125
 31
0.0
  0
LINE
  5
138
330
1E
100
AcDbEntity
  8
LAY0_0
  6
Continuous
 62
     0
100
AcDbLine
 10
59064.990234375
 20
27027.7221679688
 30
0.0
 11
59428.80859375
 21
27027.7221679688
 31
0.0
  0
LINE
  5
139
330
1E
100
AcDbEntity
  8
LAY0_0
  6
Continuous
 62
     0
100
AcDbLine
 10
57177.3864746094
 20
39992.724609375
 30
0.0
 11
58696.0388183594
 21
38865.2099609375
 31
0.0
  0
LINE
  5
13A
330
1E
100
AcDbEntity
  8
LAY0_0
  6
Continuous
 62
     0
100
AcDbLine
 10
58696.0388183594
 20
36751.416015625
 30
0.0
 11
58696.0388183594
 21
38865.2099609375
 31
0.0
  0
LINE
  5
13B
330
1E
100
AcDbEntity
  8
LAY0_0
  6
Continuous
 62
     0
100
AcDbLine
 10
59846.1120605469
 20
27027.7221679688
 30
0.0
 11
59846.1120605469
 21
27079.4860839844
 31
0.0
  0
LINE
  5
13C
330
1E
100
AcDbEntity
  8
LAY0_0
  6
Continuous
 62
     0
100
AcDbLine
 10
59896.8566894531
 20
27127.9663085938
 30
0.0
 11
59846.1120605469
 21
27079.4860839844
 31
0.0
  0
LINE
  5
13D
330
1E
100
AcDbEntity
  8
LAY0_0
  6
Continuous
 62
     0
100
AcDbLine
 10
59428.80859375
 20
27027.7221679688
 30
0.0
 11
59479.5593261719
 21
26979.2419433594
 31
0.0
  0
LINE
  5
13E
330
1E
100
AcDbEntity
  8
LAY0_0
  6
Continuous
 62
     0
100
AcDbLine
 10
59479.5593261719
 20
26979.2419433594
 30
0.0
 11
59530.3039550781
 21
27027.7221679688
 31
0.0
  0
LINE
  5
13F
330
1E
100
AcDbEntity
  8
LAY0_0
  6
Continuous
 62
     0
100
AcDbLine
 10
58696.0388183594
 20
30701.3610839844
 30
0.0
 11
58696.044921875
 21
28587.5793457031
 31
0.0
  0
LINE
  5
140
330
1E
100
AcDbEntity
  8
LAY0_0
  6
Continuous
 62
     0
100
AcDbLine
 10
58599.6459960938
 20
26374.8413085938
 30
0.0
 11
58599.6459960938
 21
26426.611328125
 31
0.0
  0
LINE
  5
141
330
1E
100
AcDbEntity
  8
LAY0_0
  6
Continuous
 62
     0
100
AcDbLine
 10
59896.8566894531
 20
26127.734375
 30
0.0
 11
59808.9538574219
 21
26042.1691894531
 31
0.0
  0
LINE
  5
142
330
1E
100
AcDbEntity
  8
LAY0_0
  6
Continuous
 62
     0
100
AcDbLine
 10
58548.8891601563
 20
26475.0793457031
 30
0.0
 11
58599.6459960938
 21
26426.611328125
 31
0.0
  0
LINE
  5
143
330
1E
100
AcDbEntity
  8
LAY0_0
  6
Continuous
 62
     0
100
AcDbLine
 10
59896.8566894531
 20
26475.0793457031
 30
0.0
 11
59896.8566894531
 21
26979.2419433594
 31
0.0
  0
LINE
  5
144
330
1E
100
AcDbEntity
  8
LAY0_0
  6
Continuous
 62
     0
100
AcDbLine
 10
59530.3039550781
 20
26426.611328125
 30
0.0
 11
59846.1120605469
 21
26426.611328125
 31
0.0
  0
LINE
  5
145
330
1E
100
AcDbEntity
  8
LAY0_0
  6
Continuous
 62
     0
100
AcDbLine
 10
57177.392578125
 20
27460.05859375
 30
0.0
 11
58696.044921875
 21
28587.5793457031
 31
0.0
  0
LINE
  5
146
330
1E
100
AcDbEntity
  8
LAY0_0
  6
Continuous
 62
     0
100
AcDbLine
 10
58963.5070800781
 20
26426.611328125
 30
0.0
 11
59014.2456054688
 21
26475.0793457031
 31
0.0
  0
LINE
  5
147
330
1E
100
AcDbEntity
  8
LAY0_0
  6
Continuous
 62
     0
100
AcDbLine
 10
59065.0024414063
 20
26426.611328125
 30
0.0
 11
59428.80859375
 21
26426.611328125
 31
0.0
  0
LINE
  5
148
330
1E
100
AcDbEntity
  8
LAY0_0
  6
Continuous
 62
     0
100
AcDbLine
 10
81296.728515625
 20
25726.4282226563
 30
0.0
 11
81296.728515625
 21
26116.4428710938
 31
0.0
  0
LINE
  5
149
330
1E
100
AcDbEntity
  8
LAY0_0
  6
Continuous
 62
     0
100
AcDbLine
 10
80679.6020507813
 20
25726.4282226563
 30
0.0
 11
80679.6020507813
 21
41726.3793945313
 31
0.0
  0
LINE
  5
14A
330
1E
100
AcDbEntity
  8
LAY0_0
  6
Continuous
 62
     0
100
AcDbLine
 10
80679.6020507813
 20
26116.4428710938
 30
0.0
 11
80679.6020507813
 21
25726.4282226563
 31
0.0
  0
LINE
  5
14B
330
1E
100
AcDbEntity
  8
LAY0_0
  6
Continuous
 62
     0
100
AcDbLine
 10
81296.728515625
 20
26116.4428710938
 30
0.0
 11
80679.6020507813
 21
26116.4428710938
 31
0.0
  0
LINE
  5
14C
330
1E
100
AcDbEntity
  8
LAY0_0
  6
Continuous
 62
     0
100
AcDbLine
 10
45879.78515625
 20
26197.6989746094
 30
0.0
 11
45879.78515625
 21
27256.6162109375
 31
0.0
  0
LINE
  5
14D
330
1E
100
AcDbEntity
  8
LAY0_0
  6
Continuous
 62
     0
100
AcDbLine
 10
45925.1068115234
 20
26197.6989746094
 30
0.0
 11
45925.1068115234
 21
25926.4282226563
 31
0.0
  0
LINE
  5
14E
330
1E
100
AcDbEntity
  8
LAY0_0
  6
Continuous
 62
     0
100
AcDbLine
 10
46294.55261230469
 20
26197.6989746094
 30
0.0
 11
45879.78515625
 21
26197.6989746094
 31
0.0
  0
LINE
  5
14F
330
1E
100
AcDbEntity
  8
LAY0_0
  6
Continuous
 62
     0
100
AcDbLine
 10
46294.55261230469
 20
27256.6162109375
 30
0.0
 11
46294.55261230469
 21
26197.6989746094
 31
0.0
  0
LINE
  5
151
330
1E
100
AcDbEntity
  8
LAY0_0
  6
CENTER
 62
     0
100
AcDbLine
 10
85789.0319824219
 20
41726.42822265629
 30
0.0
 11
85789.0319824219
 21
25726.4282226563
 31
0.0
  0
LINE
  5
152
330
1E
100
AcDbEntity
  8
LAY0_0
  6
CENTER
 62
     0
100
AcDbLine
 10
55800.6042480469
 20
31011.8835449219
 30
0.0
 11
55800.6042480469
 21
25726.4282226563
 31
0.0
  0
LINE
  5
153
330
1E
100
AcDbEntity
  8
LAY0_0
  6
Continuous
 62
     0
100
AcDbLine
 10
58554.39453125
 20
48889.5690917969
 30
0.0
 11
58554.39453125
 21
49689.0686035156
 31
0.0
  0
LINE
  5
154
330
1E
100
AcDbEntity
  8
LAY0_0
  6
Continuous
 62
     0
100
AcDbLine
 10
86824.31640625
 20
26116.4428710938
 30
0.0
 11
87918.2861328125
 21
26116.4428710938
 31
0.0
  0
LINE
  5
155
330
1E
100
AcDbEntity
  8
LAY0_0
  6
Continuous
 62
     0
100
AcDbLine
 10
47311.4318847656
 20
26116.4428710938
 30
0.0
 11
48340.4602050781
 21
26116.4428710938
 31
0.0
  0
LINE
  5
158
330
1E
100
AcDbEntity
  8
LAY0_0
  6
Continuous
 62
     0
100
AcDbLine
 10
47311.4318847656
 20
25726.4282226563
 30
0.0
 11
47311.4318847656
 21
26116.4428710938
 31
0.0
  0
LINE
  5
159
330
1E
100
AcDbEntity
  8
LAY0_0
  6
Continuous
 62
     0
100
AcDbLine
 10
87918.2861328125
 20
25726.4282226563
 30
0.0
 11
87918.2861328125
 21
26116.4428710938
 31
0.0
  0
LINE
  5
15A
330
1E
100
AcDbEntity
  8
LAY0_0
  6
Continuous
 62
     0
100
AcDbLine
 10
61879.60205078129
 20
25726.4282226563
 30
0.0
 11
61879.60205078129
 21
26116.4428710938
 31
0.0
  0
LINE
  5
15B
330
1E
100
AcDbEntity
  8
LAY0_0
  6
Continuous
 62
     0
100
AcDbLine
 10
48340.4602050781
 20
25726.4282226563
 30
0.0
 11
48340.4602050781
 21
26116.4428710938
 31
0.0
  0
LINE
  5
15C
330
1E
100
AcDbEntity
  8
LAY0_0
  6
Continuous
 62
     0
100
AcDbLine
 10
82221.4477539063
 20
26599.4567871094
 30
0.0
 11
82273.14453125
 21
26549.12109375
 31
0.0
  0
LINE
  5
15D
330
1E
100
AcDbEntity
  8
LAY0_0
  6
Continuous
 62
     0
100
AcDbLine
 10
82738.4887695313
 20
26599.4567871094
 30
0.0
 11
82738.4887695313
 21
26861.9323730469
 31
0.0
  0
LINE
  5
15E
330
1E
100
AcDbEntity
  8
LAY0_0
  6
Continuous
 62
     0
100
AcDbLine
 10
86824.31640625
 20
25726.4282226563
 30
0.0
 11
86824.31640625
 21
26116.4428710938
 31
0.0
  0
LINE
  5
15F
330
1E
100
AcDbEntity
  8
LAY0_0
  6
Continuous
 62
     0
100
AcDbLine
 10
82686.7858886719
 20
26549.12109375
 30
0.0
 11
82738.4887695313
 21
26599.4567871094
 31
0.0
  0
LINE
  5
160
330
1E
100
AcDbEntity
  8
LAY0_0
  6
Continuous
 62
     0
100
AcDbLine
 10
61879.60205078129
 20
26116.4428710938
 30
0.0
 11
61262.47558593749
 21
26116.4428710938
 31
0.0
  0
LINE
  5
161
330
1E
100
AcDbEntity
  8
LAY0_0
  6
Continuous
 62
     0
100
AcDbLine
 10
45670.02258300781
 20
26497.7478027344
 30
0.0
 11
45879.78515625
 21
26421.7590332031
 31
0.0
  0
LINE
  5
162
330
1E
100
AcDbEntity
  8
LAY0_0
  6
Continuous
 62
     0
100
AcDbLine
 10
45154.4860839844
 20
26197.6989746094
 30
0.0
 11
45154.4860839844
 21
26392.3034667969
 31
0.0
  0
LINE
  5
163
330
1E
100
AcDbEntity
  8
LAY0_0
  6
Continuous
 62
     0
100
AcDbLine
 10
45879.78515625
 20
26197.6989746094
 30
0.0
 11
45154.4860839844
 21
26197.6989746094
 31
0.0
  0
LINE
  5
164
330
1E
100
AcDbEntity
  8
LAY0_0
  6
Continuous
 62
     0
100
AcDbLine
 10
45670.02258300781
 20
26956.5612792969
 30
0.0
 11
45670.02258300781
 21
26497.7478027344
 31
0.0
  0
LINE
  5
165
330
1E
100
AcDbEntity
  8
LAY0_0
  6
Continuous
 62
     0
100
AcDbLine
 10
91394.8486328125
 20
28525.0671386719
 30
0.0
 11
90923.8037109375
 21
26611.4868164063
 31
0.0
  0
LINE
  5
166
330
1E
100
AcDbEntity
  8
LAY0_0
  6
Continuous
 62
     0
100
AcDbLine
 10
61262.47558593749
 20
26116.4428710938
 30
0.0
 11
61262.47558593749
 21
25726.4282226563
 31
0.0
  0
LINE
  5
167
330
1E
100
AcDbEntity
  8
LAY0_0
  6
Continuous
 62
     0
100
AcDbLine
 10
45154.4860839844
 20
26392.3034667969
 30
0.0
 11
45670.02258300781
 21
26497.7478027344
 31
0.0
  0
LINE
  5
168
330
1E
100
AcDbEntity
  8
LAY0_0
  6
Continuous
 62
     0
100
AcDbLine
 10
90923.8037109375
 20
26611.4868164063
 30
0.0
 11
90130.15747070311
 21
26796.6125488281
 31
0.0
  0
LINE
  5
169
330
1E
100
AcDbEntity
  8
LAY0_0
  6
Continuous
 62
     0
100
AcDbLine
 10
47746.4447021484
 20
36341.3513183594
 30
0.0
 11
46188.4826660156
 21
36341.3513183594
 31
0.0
  0
LINE
  5
16A
330
1E
100
AcDbEntity
  8
LAY0_0
  6
Continuous
 62
     0
100
AcDbLine
 10
47849.85046386719
 20
34985.05859375
 30
0.0
 11
47901.55944824219
 21
34934.7351074219
 31
0.0
  0
LINE
  5
16B
330
1E
100
AcDbEntity
  8
LAY0_0
  6
Continuous
 62
     0
100
AcDbLine
 10
50662.9211425781
 20
32936.3830566406
 30
0.0
 11
51508.88671875
 21
32936.3830566406
 31
0.0
  0
LINE
  5
16C
330
1E
100
AcDbEntity
  8
LAY0_0
  6
Continuous
 62
     0
100
AcDbLine
 10
48772.9583740234
 20
36240.6860351563
 30
0.0
 11
48772.9583740234
 21
34985.05859375
 31
0.0
  0
LINE
  5
16D
330
1E
100
AcDbEntity
  8
LAY0_0
  6
Continuous
 62
     0
100
AcDbLine
 10
48669.5495605469
 20
36341.3513183594
 30
0.0
 11
48772.9583740234
 21
36240.6860351563
 31
0.0
  0
LINE
  5
16E
330
1E
100
AcDbEntity
  8
LAY0_0
  6
Continuous
 62
     0
100
AcDbLine
 10
48772.9583740234
 20
36240.6860351563
 30
0.0
 11
48876.36413574219
 21
36341.3513183594
 31
0.0
  0
LINE
  5
16F
330
1E
100
AcDbEntity
  8
LAY0_0
  6
Continuous
 62
     0
100
AcDbLine
 10
47849.85046386719
 20
34985.05859375
 30
0.0
 11
47849.85046386719
 21
36240.6860351563
 31
0.0
  0
LINE
  5
170
330
1E
100
AcDbEntity
  8
LAY0_0
  6
Continuous
 62
     0
100
AcDbLine
 10
48721.2554931641
 20
34934.7351074219
 30
0.0
 11
47901.55944824219
 21
34934.7351074219
 31
0.0
  0
LINE
  5
171
330
1E
100
AcDbEntity
  8
LAY0_0
  6
Continuous
 62
     0
100
AcDbLine
 10
50662.9211425781
 20
32433.0810546875
 30
0.0
 11
51508.88671875
 21
32433.0810546875
 31
0.0
  0
LINE
  5
172
330
1E
100
AcDbEntity
  8
LAY0_0
  6
Continuous
 62
     0
100
AcDbLine
 10
53365.6066894531
 20
34607.3669433594
 30
0.0
 11
53210.498046875
 21
34456.3720703125
 31
0.0
  0
LINE
  5
173
330
1E
100
AcDbEntity
  8
LAY0_0
  6
Continuous
 62
     0
100
AcDbLine
 10
50662.9211425781
 20
34446.3073730469
 30
0.0
 11
50662.9211425781
 21
34949.6032714844
 31
0.0
  0
LINE
  5
174
330
1E
100
AcDbEntity
  8
LAY0_0
  6
Continuous
 62
     0
100
AcDbLine
 10
47953.2623291016
 20
36341.3513183594
 30
0.0
 11
48669.5495605469
 21
36341.3513183594
 31
0.0
  0
LINE
  5
175
330
1E
100
AcDbEntity
  8
LAY0_0
  6
Continuous
 62
     0
100
AcDbLine
 10
53210.498046875
 20
32926.318359375
 30
0.0
 11
53365.6066894531
 21
32775.3234863281
 31
0.0
  0
LINE
  5
176
330
1E
100
AcDbEntity
  8
LAY0_0
  6
Continuous
 62
     0
100
AcDbLine
 10
53365.6066894531
 20
34607.3669433594
 30
0.0
 11
55092.529296875
 21
34607.3669433594
 31
0.0
  0
LINE
  5
177
330
1E
100
AcDbEntity
  8
LAY0_0
  6
Continuous
 62
     0
100
AcDbLine
 10
51508.88671875
 20
34949.6032714844
 30
0.0
 11
50662.9211425781
 21
34949.6032714844
 31
0.0
  0
LINE
  5
178
330
1E
100
AcDbEntity
  8
LAY0_0
  6
Continuous
 62
     0
100
AcDbLine
 10
51508.88671875
 20
34446.3073730469
 30
0.0
 11
50662.9211425781
 21
34446.3073730469
 31
0.0
  0
LINE
  5
179
330
1E
100
AcDbEntity
  8
LAY0_0
  6
Continuous
 62
     0
100
AcDbLine
 10
53210.498046875
 20
32926.318359375
 30
0.0
 11
53210.498046875
 21
34456.3720703125
 31
0.0
  0
LINE
  5
17A
330
1E
100
AcDbEntity
  8
LAY0_0
  6
Continuous
 62
     0
100
AcDbLine
 10
54937.4145507813
 20
31980.1025390625
 30
0.0
 11
50059.1857910156
 21
31980.1025390625
 31
0.0
  0
LINE
  5
17B
330
1E
100
AcDbEntity
  8
LAY0_0
  6
Continuous
 62
     0
100
AcDbLine
 10
54937.4145507813
 20
35402.587890625
 30
0.0
 11
50059.1857910156
 21
35402.587890625
 31
0.0
  0
LINE
  5
17C
330
1E
100
AcDbEntity
  8
LAY0_0
  6
Continuous
 62
     0
100
AcDbLine
 10
55092.529296875
 20
35251.5930175781
 30
0.0
 11
55092.529296875
 21
32131.0974121094
 31
0.0
  0
LINE
  5
17D
330
1E
100
AcDbEntity
  8
LAY0_0
  6
Continuous
 62
     0
100
AcDbLine
 10
51508.88671875
 20
33198.1018066406
 30
0.0
 11
50455.37414550781
 21
33198.1018066406
 31
0.0
  0
LINE
  5
17E
330
1E
100
AcDbEntity
  8
LAY0_0
  6
Continuous
 62
     0
100
AcDbLine
 10
58696.0388183594
 20
30701.3610839844
 30
0.0
 11
48801.46484375
 21
30701.3732910156
 31
0.0
  0
LINE
  5
17F
330
1E
100
AcDbEntity
  8
LAY0_0
  6
Continuous
 62
     0
100
AcDbLine
 10
55963.6169433594
 20
36240.6860351563
 30
0.0
 11
56067.0288085938
 21
36341.3513183594
 31
0.0
  0
LINE
  5
180
330
1E
100
AcDbEntity
  8
LAY0_0
  6
Continuous
 62
     0
100
AcDbLine
 10
46444.99800266517
 20
36368.4448242188
 30
0.0
 11
57000.9887695313
 21
36368.4448242188
 31
0.0
  0
LINE
  5
181
330
1E
100
AcDbEntity
  8
LAY0_0
  6
Continuous
 62
     0
100
AcDbLine
 10
48665.4357910156
 20
27460.0830078125
 30
0.0
 11
57177.392578125
 21
27460.05859375
 31
0.0
  0
LINE
  5
182
330
1E
100
AcDbEntity
  8
LAY0_0
  6
Continuous
 62
     0
100
AcDbLine
 10
49904.0771484375
 20
32131.0974121094
 30
0.0
 11
49904.0771484375
 21
35251.5930175781
 31
0.0
  0
LINE
  5
183
330
1E
100
AcDbEntity
  8
LAY0_0
  6
Continuous
 62
     0
100
AcDbLine
 10
50455.37414550781
 20
34184.5764160156
 30
0.0
 11
50455.37414550781
 21
33198.1018066406
 31
0.0
  0
LINE
  5
184
330
1E
100
AcDbEntity
  8
LAY0_0
  6
Continuous
 62
     0
100
AcDbLine
 10
51508.88671875
 20
34184.5764160156
 30
0.0
 11
51508.88671875
 21
33198.1018066406
 31
0.0
  0
LINE
  5
185
330
1E
100
AcDbEntity
  8
LAY0_0
  6
Continuous
 62
     0
100
AcDbLine
 10
48721.2554931641
 20
34934.7351074219
 30
0.0
 11
48772.9583740234
 21
34985.05859375
 31
0.0
  0
LINE
  5
186
330
1E
100
AcDbEntity
  8
LAY0_0
  6
Continuous
 62
     0
100
AcDbLine
 10
49904.0771484375
 20
35251.5930175781
 30
0.0
 11
50059.1857910156
 21
35402.587890625
 31
0.0
  0
LINE
  5
187
330
1E
100
AcDbEntity
  8
LAY0_0
  6
Continuous
 62
     0
100
AcDbLine
 10
49904.0771484375
 20
32131.0974121094
 30
0.0
 11
50059.1857910156
 21
31980.1025390625
 31
0.0
  0
LINE
  5
188
330
1E
100
AcDbEntity
  8
LAY0_0
  6
Continuous
 62
     0
100
AcDbLine
 10
51508.88671875
 20
34184.5764160156
 30
0.0
 11
50455.37414550781
 21
34184.5764160156
 31
0.0
  0
LINE
  5
189
330
1E
100
AcDbEntity
  8
LAY0_0
  6
Continuous
 62
     0
100
AcDbLine
 10
54937.4145507813
 20
35402.587890625
 30
0.0
 11
55092.529296875
 21
35251.5930175781
 31
0.0
  0
LINE
  5
18A
330
1E
100
AcDbEntity
  8
LAY0_0
  6
Continuous
 62
     0
100
AcDbLine
 10
54937.4145507813
 20
31980.1025390625
 30
0.0
 11
55092.529296875
 21
32131.0974121094
 31
0.0
  0
LINE
  5
18B
330
1E
100
AcDbEntity
  8
LAY0_0
  6
Continuous
 62
     0
100
AcDbLine
 10
46294.55261230469
 20
40241.162109375
 30
0.0
 11
45879.78515625
 21
40241.162109375
 31
0.0
  0
LINE
  5
18C
330
1E
100
AcDbEntity
  8
LAY0_0
  6
Continuous
 62
     0
100
AcDbLine
 10
45154.4860839844
 20
40241.162109375
 30
0.0
 11
45154.4860839844
 21
40435.7666015625
 31
0.0
  0
LINE
  5
18D
330
1E
100
AcDbEntity
  8
LAY0_0
  6
Continuous
 62
     0
100
AcDbLine
 10
60901.6479492188
 20
39072.5280761719
 30
0.0
 11
60901.6479492188
 21
38027.7160644531
 31
0.0
  0
LINE
  5
18E
330
1E
100
AcDbEntity
  8
LAY0_0
  6
Continuous
 62
     0
100
AcDbLine
 10
60901.6479492188
 20
38027.7160644531
 30
0.0
 11
60024.7192382813
 21
38027.7160644531
 31
0.0
  0
LINE
  5
18F
330
1E
100
AcDbEntity
  8
LAY0_0
  6
Continuous
 62
     0
100
AcDbLine
 10
90130.15747070311
 20
26796.6125488281
 30
0.0
 11
90601.1962890625
 21
28710.1928710938
 31
0.0
  0
LINE
  5
190
330
1E
100
AcDbEntity
  8
LAY0_0
  6
Continuous
 62
     0
100
AcDbLine
 10
45154.4860839844
 20
27256.6162109375
 30
0.0
 11
45154.4860839844
 21
27062.0178222656
 31
0.0
  0
LINE
  5
191
330
1E
100
AcDbEntity
  8
LAY0_0
  6
Continuous
 62
     0
100
AcDbLine
 10
46294.55261230469
 20
41300.0854492188
 30
0.0
 11
46294.55261230469
 21
40241.162109375
 31
0.0
  0
LINE
  5
192
330
1E
100
AcDbEntity
  8
LAY0_0
  6
Continuous
 62
     0
100
AcDbLine
 10
45879.78515625
 20
41300.0854492188
 30
0.0
 11
46294.55261230469
 21
41300.0854492188
 31
0.0
  0
LINE
  5
193
330
1E
100
AcDbEntity
  8
LAY0_0
  6
Continuous
 62
     0
100
AcDbLine
 10
60024.7192382813
 20
39072.5280761719
 30
0.0
 11
60901.6479492188
 21
39072.5280761719
 31
0.0
  0
LINE
  5
194
330
1E
100
AcDbEntity
  8
LAY0_0
  6
Continuous
 62
     0
100
AcDbLine
 10
45154.4860839844
 20
41300.0854492188
 30
0.0
 11
45154.4860839844
 21
41105.4809570313
 31
0.0
  0
LINE
  5
195
330
1E
100
AcDbEntity
  8
LAY0_0
  6
Continuous
 62
     0
100
AcDbLine
 10
45670.02258300781
 20
41000.0366210938
 30
0.0
 11
45879.78515625
 21
41076.0437011719
 31
0.0
  0
LINE
  5
196
330
1E
100
AcDbEntity
  8
LAY0_0
  6
Continuous
 62
     0
100
AcDbLine
 10
47901.55944824219
 20
32447.94921875
 30
0.0
 11
48721.2554931641
 21
32447.94921875
 31
0.0
  0
LINE
  5
197
330
1E
100
AcDbEntity
  8
LAY0_0
  6
Continuous
 62
     0
100
AcDbLine
 10
47849.85046386719
 20
31141.9921875
 30
0.0
 11
47849.85046386719
 21
32397.6196289063
 31
0.0
  0
LINE
  5
198
330
1E
100
AcDbEntity
  8
LAY0_0
  6
Continuous
 62
     0
100
AcDbLine
 10
45154.4860839844
 20
41105.4809570313
 30
0.0
 11
45670.02258300781
 21
41000.0366210938
 31
0.0
  0
LINE
  5
199
330
1E
100
AcDbEntity
  8
LAY0_0
  6
Continuous
 62
     0
100
AcDbLine
 10
60024.7192382813
 20
38027.7160644531
 30
0.0
 11
60024.7192382813
 21
39072.5280761719
 31
0.0
  0
LINE
  5
19A
330
1E
100
AcDbEntity
  8
LAY0_0
  6
Continuous
 62
     0
100
AcDbLine
 10
45879.78515625
 20
40241.162109375
 30
0.0
 11
45154.4860839844
 21
40241.162109375
 31
0.0
  0
LINE
  5
19B
330
1E
100
AcDbEntity
  8
LAY0_0
  6
Continuous
 62
     0
100
AcDbLine
 10
45879.78515625
 20
40241.162109375
 30
0.0
 11
45879.78515625
 21
41300.0854492188
 31
0.0
  0
LINE
  5
19C
330
1E
100
AcDbEntity
  8
LAY0_0
  6
Continuous
 62
     0
100
AcDbLine
 10
45670.02258300781
 20
40541.2231445313
 30
0.0
 11
45879.78515625
 21
40465.2221679688
 31
0.0
  0
LINE
  5
19D
330
1E
100
AcDbEntity
  8
LAY0_0
  6
Continuous
 62
     0
100
AcDbLine
 10
45879.78515625
 20
27256.6162109375
 30
0.0
 11
46294.55261230469
 21
27256.6162109375
 31
0.0
  0
LINE
  5
19E
330
1E
100
AcDbEntity
  8
LAY0_0
  6
Continuous
 62
     0
100
AcDbLine
 10
45670.02258300781
 20
41000.0366210938
 30
0.0
 11
45670.02258300781
 21
40541.2231445313
 31
0.0
  0
LINE
  5
19F
330
1E
100
AcDbEntity
  8
LAY0_0
  6
Continuous
 62
     0
100
AcDbLine
 10
45879.78515625
 20
41300.0854492188
 30
0.0
 11
45154.4860839844
 21
41300.0854492188
 31
0.0
  0
LINE
  5
1A0
330
1E
100
AcDbEntity
  8
LAY0_0
  6
Continuous
 62
     0
100
AcDbLine
 10
51508.88671875
 20
32433.0810546875
 30
0.0
 11
51508.88671875
 21
32936.3830566406
 31
0.0
  0
LINE
  5
1A1
330
1E
100
AcDbEntity
  8
LAY0_0
  6
Continuous
 62
     0
100
AcDbLine
 10
50662.9211425781
 20
32433.0810546875
 30
0.0
 11
50662.9211425781
 21
32936.3830566406
 31
0.0
  0
LINE
  5
1A2
330
1E
100
AcDbEntity
  8
LAY0_0
  6
Continuous
 62
     0
100
AcDbLine
 10
45154.4860839844
 20
40435.7666015625
 30
0.0
 11
45670.02258300781
 21
40541.2231445313
 31
0.0
  0
LINE
  5
1A3
330
1E
100
AcDbEntity
  8
LAY0_0
  6
Continuous
 62
     0
100
AcDbLine
 10
51508.88671875
 20
34446.3073730469
 30
0.0
 11
51508.88671875
 21
34949.6032714844
 31
0.0
  0
LINE
  5
1A4
330
1E
100
AcDbEntity
  8
LAY0_0
  6
Continuous
 62
     0
100
AcDbLine
 10
45154.4860839844
 20
27062.0178222656
 30
0.0
 11
45670.02258300781
 21
26956.5612792969
 31
0.0
  0
LINE
  5
1A5
330
1E
100
AcDbEntity
  8
LAY0_0
  6
Continuous
 62
     0
100
AcDbLine
 10
91539.83154296881
 20
38696.0266113281
 30
0.0
 11
90759.99755859381
 21
38461.8286132813
 31
0.0
  0
LINE
  5
1A6
330
1E
100
AcDbEntity
  8
LAY0_0
  6
Continuous
 62
     0
100
AcDbLine
 10
90164.05639648439
 20
40342.1264648438
 30
0.0
 11
90943.90869140631
 21
40576.3244628906
 31
0.0
  0
LINE
  5
1A7
330
1E
100
AcDbEntity
  8
LAY0_0
  6
Continuous
 62
     0
100
AcDbLine
 10
90759.99755859381
 20
38461.8286132813
 30
0.0
 11
90164.05639648439
 21
40342.1264648438
 31
0.0
  0
LINE
  5
1A8
330
1E
100
AcDbEntity
  8
LAY0_0
  6
Continuous
 62
     0
100
AcDbLine
 10
45879.78515625
 20
27256.6162109375
 30
0.0
 11
45154.4860839844
 21
27256.6162109375
 31
0.0
  0
LINE
  5
1A9
330
1E
100
AcDbEntity
  8
LAY0_0
  6
Continuous
 62
     0
100
AcDbLine
 10
90601.1962890625
 20
28710.1928710938
 30
0.0
 11
91394.8486328125
 21
28525.0671386719
 31
0.0
  0
LINE
  5
1AA
330
1E
100
AcDbEntity
  8
LAY0_0
  6
Continuous
 62
     0
100
AcDbLine
 10
45670.02258300781
 20
26956.5612792969
 30
0.0
 11
45879.78515625
 21
27032.5622558594
 31
0.0
  0
LINE
  5
1AB
330
1E
100
AcDbEntity
  8
LAY0_0
  6
Continuous
 62
     0
100
AcDbLine
 10
90943.90869140631
 20
40576.3244628906
 30
0.0
 11
91539.83154296881
 21
38696.0266113281
 31
0.0
  0
LINE
  5
1AC
330
1E
100
AcDbEntity
  8
LAY0_0
  6
Continuous
 62
     0
100
AcDbLine
 10
45925.10681152341
 20
30514.2578125
 30
0.0
 11
45925.1068115234
 21
27256.6162109375
 31
0.0
  0
LINE
  5
1AD
330
1E
100
AcDbEntity
  8
LAY0_0
  6
Continuous
 62
     0
100
AcDbLine
 10
55860.205078125
 20
36341.3513183594
 30
0.0
 11
55963.6169433594
 21
36240.6860351563
 31
0.0
  0
LINE
  5
1AE
330
1E
100
AcDbEntity
  8
LAY0_0
  6
DASHED2
 62
     0
100
AcDbLine
 10
88007.95288085939
 20
34417.6208496094
 30
0.0
 11
88059.67407226561
 21
34467.9443359375
 31
0.0
  0
LINE
  5
1AF
330
1E
100
AcDbEntity
  8
LAY0_0
  6
DASHED2
 62
     0
100
AcDbLine
 10
88059.67407226561
 20
35423.2238769531
 30
0.0
 11
88007.95288085939
 21
35473.5595703125
 31
0.0
  0
LINE
  5
1B0
330
1E
100
AcDbEntity
  8
LAY0_0
  6
Continuous
 62
     0
100
AcDbLine
 10
87307.0556640625
 20
34467.9443359375
 30
0.0
 11
87307.0556640625
 21
34876.3244628906
 31
0.0
  0
LINE
  5
1B1
330
1E
100
AcDbEntity
  8
LAY0_0
  6
DASHED2
 62
     0
100
AcDbLine
 10
87358.7524414063
 20
34417.6208496094
 30
0.0
 11
87307.0556640625
 21
34467.9443359375
 31
0.0
  0
LINE
  5
1B2
330
1E
100
AcDbEntity
  8
LAY0_0
  6
Continuous
 62
     0
100
AcDbLine
 10
82006.2377929688
 20
35448.3947753906
 30
0.0
 11
82006.2377929688
 21
34777.8625488281
 31
0.0
  0
LINE
  5
1B3
330
1E
100
AcDbEntity
  8
LAY0_0
  6
Continuous
 62
     0
100
AcDbLine
 10
82006.2377929688
 20
34777.8625488281
 30
0.0
 11
81137.5244140625
 21
34777.8625488281
 31
0.0
  0
LINE
  5
1B4
330
1E
100
AcDbEntity
  8
LAY0_0
  6
DASHED2
 62
     0
100
AcDbLine
 10
86918.2983398438
 20
35473.5595703125
 30
0.0
 11
86866.5832519531
 21
35423.2238769531
 31
0.0
  0
LINE
  5
1B5
330
1E
100
AcDbEntity
  8
LAY0_0
  6
Continuous
 62
     0
100
AcDbLine
 10
81137.5244140625
 20
35448.3947753906
 30
0.0
 11
82006.2377929688
 21
35448.3947753906
 31
0.0
  0
LINE
  5
1B6
330
1E
100
AcDbEntity
  8
LAY0_0
  6
Continuous
 62
     0
100
AcDbLine
 10
88007.95288085939
 20
35473.5595703125
 30
0.0
 11
86918.2983398438
 21
35473.5595703125
 31
0.0
  0
LINE
  5
1B7
330
1E
100
AcDbEntity
  8
LAY0_0
  6
Continuous
 62
     0
100
AcDbLine
 10
81296.728515625
 20
41336.3647460938
 30
0.0
 11
81296.72851562501
 21
41726.42822265629
 31
0.0
  0
LINE
  5
1B8
330
1E
100
AcDbEntity
  8
LAY0_0
  6
Continuous
 62
     0
100
AcDbLine
 10
81296.728515625
 20
41336.3647460938
 30
0.0
 11
80679.6020507813
 21
41336.3647460938
 31
0.0
  0
LINE
  5
1B9
330
1E
100
AcDbEntity
  8
LAY0_0
  6
Continuous
 62
     0
100
AcDbLine
 10
48340.4602050781
 20
41336.3586425781
 30
0.0
 11
48340.4602050781
 21
41726.42822265629
 31
0.0
  0
LINE
  5
1BA
330
1E
100
AcDbEntity
  8
LAY0_0
  6
Continuous
 62
     0
100
AcDbLine
 10
48665.4357910156
 20
39992.724609375
 30
0.0
 11
57177.3864746094
 21
39992.724609375
 31
0.0
  0
LINE
  5
1BB
330
1E
100
AcDbEntity
  8
LAY0_0
  6
Continuous
 62
     0
100
AcDbLine
 10
87307.0556640625
 20
34876.3244628906
 30
0.0
 11
86866.5832519531
 21
35081.9458007813
 31
0.0
  0
LINE
  5
1BC
330
1E
100
AcDbEntity
  8
LAY0_0
  6
Continuous
 62
     0
100
AcDbLine
 10
86866.5832519531
 20
35081.9458007813
 30
0.0
 11
86866.5832519531
 21
35423.2238769531
 31
0.0
  0
LINE
  5
1BD
330
1E
100
AcDbEntity
  8
LAY0_0
  6
Continuous
 62
     0
100
AcDbLine
 10
88059.67407226561
 20
35423.2238769531
 30
0.0
 11
88059.67407226561
 21
34467.9443359375
 31
0.0
  0
LINE
  5
1BE
330
1E
100
AcDbEntity
  8
LAY0_0
  6
Continuous
 62
     0
100
AcDbLine
 10
88007.95288085939
 20
34417.6208496094
 30
0.0
 11
87358.7524414063
 21
34417.6208496094
 31
0.0
  0
LINE
  5
1BF
330
1E
100
AcDbEntity
  8
LAY0_0
  6
Continuous
 62
     0
100
AcDbLine
 10
52221.6186523438
 20
30701.3732910156
 30
0.0
 11
52221.6186523438
 21
28247.3815917969
 31
0.0
  0
LINE
  5
1C0
330
1E
100
AcDbEntity
  8
LAY0_0
  6
Continuous
 62
     0
100
AcDbLine
 10
50716.7724609375
 20
28218.6157226563
 30
0.0
 11
50716.7724609375
 21
27460.0769042969
 31
0.0
  0
LINE
  5
1C1
330
1E
100
AcDbEntity
  8
LAY0_0
  6
Continuous
 62
     0
100
AcDbLine
 10
48665.4357910156
 20
36751.416015625
 30
0.0
 11
48665.4357910156
 21
39992.724609375
 31
0.0
  0
LINE
  5
1C2
330
1E
100
AcDbEntity
  8
LAY0_0
  6
DASHED2
 62
     0
 48
1000.0
100
AcDbLine
 10
91606.43920898439
 20
33691.3452148438
 30
0.0
 11
45288.4765625
 21
33691.3452148438
 31
0.0
  0
LINE
  5
1C3
330
1E
100
AcDbEntity
  8
LAY0_0
  6
Continuous
 62
     0
100
AcDbLine
 10
89769.76318359381
 20
25726.4282226563
 30
0.0
 11
46124.6826171875
 21
25726.4282226563
 31
0.0
  0
LINE
  5
1C4
330
1E
100
AcDbEntity
  8
LAY0_0
  6
Continuous
 62
     0
100
AcDbLine
 10
58554.39453125
 20
41022.705078125
 30
0.0
 11
58554.39453125
 21
40518.5363769531
 31
0.0
  0
LINE
  5
1C5
330
1E
100
AcDbEntity
  8
LAY0_0
  6
Continuous
 62
     0
100
AcDbLine
 10
82221.4477539063
 20
40853.3264160156
 30
0.0
 11
82221.4477539063
 21
40590.8264160156
 31
0.0
  0
LINE
  5
1C6
330
1E
100
AcDbEntity
  8
LAY0_0
  6
CENTER
 62
     0
100
AcDbLine
 10
55800.60424804691
 20
41726.4282226563
 30
0.0
 11
55800.6042480469
 21
36368.4448242188
 31
0.0
  0
LINE
  5
1C7
330
1E
100
AcDbEntity
  8
LAY0_0
  6
Continuous
 62
     0
100
AcDbLine
 10
88851.708984375
 20
34775.8728027344
 30
0.0
 11
88851.708984375
 21
34527.3376464844
 31
0.0
  0
LINE
  5
1C8
330
1E
100
AcDbEntity
  8
LAY0_0
  6
Continuous
 62
     0
100
AcDbLine
 10
88851.708984375
 20
34527.3376464844
 30
0.0
 11
88383.64868164061
 21
34527.3376464844
 31
0.0
  0
LINE
  5
1C9
330
1E
100
AcDbEntity
  8
LAY0_0
  6
Continuous
 62
     0
100
AcDbLine
 10
81137.5244140625
 20
34777.8625488281
 30
0.0
 11
81137.5244140625
 21
35448.3947753906
 31
0.0
  0
LINE
  5
1CA
330
1E
100
AcDbEntity
  8
LAY0_0
  6
Continuous
 62
     0
100
AcDbLine
 10
88383.64868164061
 20
34775.8728027344
 30
0.0
 11
88851.708984375
 21
34775.8728027344
 31
0.0
  0
LINE
  5
1CB
330
1E
100
AcDbEntity
  8
LAY0_0
  6
CENTER
 62
     0
 48
1000.0
100
AcDbLine
 10
91309.38110351561
 20
29765.5517578125
 30
0.0
 11
45925.1068115234
 21
29765.5517578125
 31
0.0
  0
LINE
  5
1CC
330
1E
100
AcDbEntity
  8
LAY0_0
  6
CENTER
 62
     0
100
AcDbLine
 10
55440.8569335938
 20
36341.3513183594
 30
0.0
 11
55440.8569335938
 21
31165.2465820313
 31
0.0
  0
LINE
  5
1CD
330
1E
100
AcDbEntity
  8
LAY0_0
  6
Continuous
 62
     0
100
AcDbLine
 10
88383.64868164061
 20
34527.3376464844
 30
0.0
 11
88383.64868164061
 21
34775.8728027344
 31
0.0
  0
LINE
  5
1CE
330
1E
100
AcDbEntity
  8
LAY0_0
  6
CENTER
 62
     0
 48
1000.0
100
AcDbLine
 10
91269.31762695311
 20
37617.1264648438
 30
0.0
 11
45945.73745119728
 21
37617.12646484379
 31
0.0
  0
LINE
  5
1CF
330
1E
100
AcDbEntity
  8
LAY0_0
  6
Continuous
 62
     0
100
AcDbLine
 10
48665.4357910156
 20
36751.416015625
 30
0.0
 11
58696.0388183594
 21
36751.416015625
 31
0.0
  0
LINE
  5
1D0
330
1E
100
AcDbEntity
  8
LAY0_0
  6
Continuous
 62
     0
100
AcDbLine
 10
53377.0874023438
 20
39992.724609375
 30
0.0
 11
53377.0874023438
 21
36751.416015625
 31
0.0
  0
LINE
  5
1D1
330
1E
100
AcDbEntity
  8
LAY0_0
  6
Continuous
 62
     0
100
AcDbLine
 10
56835.009765625
 20
34934.7351074219
 30
0.0
 11
56886.71875
 21
34985.05859375
 31
0.0
  0
LINE
  5
1D2
330
1E
100
AcDbEntity
  8
LAY0_0
  6
Continuous
 62
     0
100
AcDbLine
 10
55963.6169433594
 20
34985.05859375
 30
0.0
 11
56015.3198242188
 21
34934.7351074219
 31
0.0
  0
LINE
  5
1D3
330
1E
100
AcDbEntity
  8
LAY0_0
  6
Continuous
 62
     0
100
AcDbLine
 10
60024.7192382813
 20
28380.2856445313
 30
0.0
 11
60024.7192382813
 21
29425.0854492188
 31
0.0
  0
LINE
  5
1D4
330
1E
100
AcDbEntity
  8
LAY0_0
  6
Continuous
 62
     0
100
AcDbLine
 10
45288.48266601559
 20
35441.3513183594
 30
0.0
 11
45288.4826660156
 21
31941.3330078125
 31
0.0
  0
LINE
  5
1D5
330
1E
100
AcDbEntity
  8
LAY0_0
  6
Continuous
 62
     0
100
AcDbLine
 10
60901.6479492188
 20
29425.0854492188
 30
0.0
 11
60901.6479492188
 21
28380.2856445313
 31
0.0
  0
LINE
  5
1D6
330
1E
100
AcDbEntity
  8
LAY0_0
  6
Continuous
 62
     0
100
AcDbLine
 10
60901.6479492188
 20
28380.2856445313
 30
0.0
 11
60024.7192382813
 21
28380.2856445313
 31
0.0
  0
LINE
  5
1D7
330
1E
100
AcDbEntity
  8
LAY0_0
  6
Continuous
 62
     0
100
AcDbLine
 10
56886.71875
 20
36240.6860351563
 30
0.0
 11
56990.1245117188
 21
36341.3513183594
 31
0.0
  0
LINE
  5
1D8
330
1E
100
AcDbEntity
  8
LAY0_0
  6
Continuous
 62
     0
100
AcDbLine
 10
56120.6176757813
 20
36341.3513183594
 30
0.0
 11
56783.3129882813
 21
36341.3513183594
 31
0.0
  0
LINE
  5
1D9
330
1E
100
AcDbEntity
  8
LAY0_0
  6
Continuous
 62
     0
100
AcDbLine
 10
53365.6066894531
 20
32775.3234863281
 30
0.0
 11
55092.529296875
 21
32775.3234863281
 31
0.0
  0
LINE
  5
1DA
330
1E
100
AcDbEntity
  8
LAY0_0
  6
Continuous
 62
     0
100
AcDbLine
 10
47746.4447021484
 20
36341.3513183594
 30
0.0
 11
47849.85046386719
 21
36240.6860351563
 31
0.0
  0
LINE
  5
1DB
330
1E
100
AcDbEntity
  8
LAY0_0
  6
Continuous
 62
     0
100
AcDbLine
 10
47849.85046386719
 20
36240.6860351563
 30
0.0
 11
47953.2623291016
 21
36341.3513183594
 31
0.0
  0
LINE
  5
1DC
330
1E
100
AcDbEntity
  8
LAY0_0
  6
Continuous
 62
     0
100
AcDbLine
 10
56835.009765625
 20
34934.7351074219
 30
0.0
 11
56015.3198242188
 21
34934.7351074219
 31
0.0
  0
LINE
  5
1DD
330
1E
100
AcDbEntity
  8
LAY0_0
  6
Continuous
 62
     0
100
AcDbLine
 10
56886.71875
 20
36240.6860351563
 30
0.0
 11
56886.71875
 21
34985.05859375
 31
0.0
  0
LINE
  5
1DE
330
1E
100
AcDbEntity
  8
LAY0_0
  6
Continuous
 62
     0
100
AcDbLine
 10
56783.3129882813
 20
36341.3513183594
 30
0.0
 11
56886.71875
 21
36240.6860351563
 31
0.0
  0
LINE
  5
1DF
330
1E
100
AcDbEntity
  8
LAY0_0
  6
Continuous
 62
     0
100
AcDbLine
 10
55963.6169433594
 20
34985.05859375
 30
0.0
 11
55963.6169433594
 21
36240.6860351563
 31
0.0
  0
LINE
  5
1E0
330
1E
100
AcDbEntity
  8
LAY0_0
  6
Continuous
 62
     0
100
AcDbLine
 10
52221.6186523438
 20
28247.3815917969
 30
0.0
 11
48665.4357910156
 21
28247.3815917969
 31
0.0
  0
LINE
  5
1E1
330
1E
100
AcDbEntity
  8
LAY0_0
  6
Continuous
 62
     0
100
AcDbLine
 10
57000.9887695313
 20
36341.3513183594
 30
0.0
 11
57000.9887695313
 21
36368.4448242188
 31
0.0
  0
LINE
  5
1E2
330
1E
100
AcDbEntity
  8
LAY0_0
  6
Continuous
 62
     0
100
AcDbLine
 10
48772.9583740234
 20
36190.3564453125
 30
0.0
 11
55963.8000488281
 21
36190.3564453125
 31
0.0
  0
LINE
  5
1E3
330
1E
100
AcDbEntity
  8
LAY0_0
  6
Continuous
 62
     0
100
AcDbLine
 10
48665.4418945313
 20
30701.3732910156
 30
0.0
 11
52315.1794433594
 21
30701.3732910156
 31
0.0
  0
LINE
  5
1E5
330
1E
100
AcDbEntity
  8
LAY0_0
  6
Continuous
 62
     0
100
AcDbLine
 10
47311.4318847656
 20
41336.3586425781
 30
0.0
 11
47311.4318847656
 21
41726.42822265629
 31
0.0
  0
LINE
  5
1E6
330
1E
100
AcDbEntity
  8
LAY0_0
  6
Continuous
 62
     0
100
AcDbLine
 10
57000.9887695313
 20
31041.3330078125
 30
0.0
 11
57000.9887695313
 21
31014.2578125
 31
0.0
  0
LINE
  5
1E7
330
1E
100
AcDbEntity
  8
LAY0_0
  6
Continuous
 62
     0
100
AcDbLine
 10
61262.47558593749
 20
41336.3586425781
 30
0.0
 11
61879.60205078129
 21
41336.3586425781
 31
0.0
  0
LINE
  5
1E8
330
1E
100
AcDbEntity
  8
LAY0_0
  6
Continuous
 62
     0
100
AcDbLine
 10
48876.36413574219
 20
31041.3330078125
 30
0.0
 11
55860.205078125
 21
31041.3330078125
 31
0.0
  0
LINE
  5
1E9
330
1E
100
AcDbEntity
  8
LAY0_0
  6
Continuous
 62
     0
100
AcDbLine
 10
48876.36413574219
 20
36341.3513183594
 30
0.0
 11
55860.205078125
 21
36341.3513183594
 31
0.0
  0
LINE
  5
1EA
330
1E
100
AcDbEntity
  8
LAY0_0
  6
Continuous
 62
     0
100
AcDbLine
 10
46425.10681152341
 20
31014.2578125
 30
0.0
 11
57000.9887695313
 21
31014.2578125
 31
0.0
  0
LINE
  5
1EB
330
1E
100
AcDbEntity
  8
LAY0_0
  6
Continuous
 62
     0
100
AcDbLine
 10
46188.4826660156
 20
31041.3330078125
 30
0.0
 11
47746.4447021484
 21
31041.3330078125
 31
0.0
  0
LINE
  5
1EC
330
1E
100
AcDbEntity
  8
LAY0_0
  6
Continuous
 62
     0
100
AcDbLine
 10
60024.7192382813
 20
29425.0854492188
 30
0.0
 11
60901.6479492188
 21
29425.0854492188
 31
0.0
  0
LINE
  5
1ED
330
1E
100
AcDbEntity
  8
LAY0_0
  6
Continuous
 62
     0
100
AcDbLine
 10
46213.5882568359
 20
31165.2465820313
 30
0.0
 11
47849.85046386719
 21
31165.2465820313
 31
0.0
  0
LINE
  5
1EE
330
1E
100
AcDbEntity
  8
LAY0_0
  6
Continuous
 62
     0
100
AcDbLine
 10
47849.85046386719
 20
36190.3564453125
 30
0.0
 11
46213.5882568359
 21
36190.3564453125
 31
0.0
  0
LINE
  5
1F0
330
1E
100
AcDbEntity
  8
LAY0_0
  6
Continuous
 62
     0
100
AcDbLine
 10
45443.5882568359
 20
35420.35644531251
 30
0.0
 11
45443.5882568359
 21
31935.24658203129
 31
0.0
  0
LINE
  5
1F1
330
1E
100
AcDbEntity
  8
LAY0_0
  6
Continuous
 62
     0
100
AcDbLine
 10
81838.5986328125
 20
39658.9050292969
 30
0.0
 11
81838.5986328125
 21
39619.9890136719
 31
0.0
  0
LINE
  5
1F2
330
1E
100
AcDbEntity
  8
LAY0_0
  6
Continuous
 62
     0
100
AcDbLine
 10
82766.6259765625
 20
40360.25390625
 30
0.0
 11
83070.5871582031
 21
40360.25390625
 31
0.0
  0
LINE
  5
1F3
330
1E
100
AcDbEntity
  8
LAY0_0
  6
Continuous
 62
     0
100
AcDbLine
 10
81838.5986328125
 20
39658.9050292969
 30
0.0
 11
81889.3371582031
 21
39707.3669433594
 31
0.0
  0
LINE
  5
1F4
330
1E
100
AcDbEntity
  8
LAY0_0
  6
Continuous
 62
     0
100
AcDbLine
 10
81889.3371582031
 20
39759.1491699219
 30
0.0
 11
81889.3371582031
 21
39707.3669433594
 31
0.0
  0
LINE
  5
1F5
330
1E
100
AcDbEntity
  8
LAY0_0
  6
Continuous
 62
     0
100
AcDbLine
 10
82250.5615234375
 20
39807.6110839844
 30
0.0
 11
82301.3122558594
 21
39759.1491699219
 31
0.0
  0
LINE
  5
1F6
330
1E
100
AcDbEntity
  8
LAY0_0
  6
Continuous
 62
     0
100
AcDbLine
 10
82665.1306152344
 20
39759.1491699219
 30
0.0
 11
82715.8752441406
 21
39807.6110839844
 31
0.0
  0
LINE
  5
1F7
330
1E
100
AcDbEntity
  8
LAY0_0
  6
Continuous
 62
     0
100
AcDbLine
 10
82301.3122558594
 20
40360.25390625
 30
0.0
 11
82665.1306152344
 21
40360.25390625
 31
0.0
  0
LINE
  5
1F8
330
1E
100
AcDbEntity
  8
LAY0_0
  6
Continuous
 62
     0
100
AcDbLine
 10
82250.5615234375
 20
40311.7858886719
 30
0.0
 11
82250.5615234375
 21
39807.6110839844
 31
0.0
  0
LINE
  5
1F9
330
1E
100
AcDbEntity
  8
LAY0_0
  6
Continuous
 62
     0
100
AcDbLine
 10
81838.5986328125
 20
39807.6110839844
 30
0.0
 11
81889.3371582031
 21
39759.1491699219
 31
0.0
  0
LINE
  5
1FA
330
1E
100
AcDbEntity
  8
LAY0_0
  6
Continuous
 62
     0
100
AcDbLine
 10
82766.6259765625
 20
39759.1491699219
 30
0.0
 11
83070.5871582031
 21
39759.1491699219
 31
0.0
  0
LINE
  5
1FB
330
1E
100
AcDbEntity
  8
LAY0_0
  6
Continuous
 62
     0
100
AcDbLine
 10
83121.3256835938
 20
39807.6110839844
 30
0.0
 11
83070.5871582031
 21
39759.1491699219
 31
0.0
  0
LINE
  5
1FC
330
1E
100
AcDbEntity
  8
LAY0_0
  6
Continuous
 62
     0
100
AcDbLine
 10
83070.5871582031
 20
39571.5209960938
 30
0.0
 11
83070.5871582031
 21
39519.7509765625
 31
0.0
  0
LINE
  5
1FD
330
1E
100
AcDbEntity
  8
LAY0_0
  6
Continuous
 62
     0
100
AcDbLine
 10
82301.3122558594
 20
39759.1491699219
 30
0.0
 11
82665.1306152344
 21
39759.1491699219
 31
0.0
  0
LINE
  5
1FE
330
1E
100
AcDbEntity
  8
LAY0_0
  6
Continuous
 62
     0
100
AcDbLine
 10
83121.3256835938
 20
39619.9890136719
 30
0.0
 11
83070.5871582031
 21
39571.5209960938
 31
0.0
  0
LINE
  5
1FF
330
1E
100
AcDbEntity
  8
LAY0_0
  6
Continuous
 62
     0
100
AcDbLine
 10
83121.3256835938
 20
39658.9050292969
 30
0.0
 11
83121.3256835938
 21
39619.9890136719
 31
0.0
  0
LINE
  5
200
330
1E
100
AcDbEntity
  8
LAY0_0
  6
Continuous
 62
     0
100
AcDbLine
 10
83121.3256835938
 20
39658.9050292969
 30
0.0
 11
83070.5871582031
 21
39707.3669433594
 31
0.0
  0
LINE
  5
201
330
1E
100
AcDbEntity
  8
LAY0_0
  6
Continuous
 62
     0
100
AcDbLine
 10
83070.5871582031
 20
39759.1491699219
 30
0.0
 11
83070.5871582031
 21
39707.3669433594
 31
0.0
  0
LINE
  5
202
330
1E
100
AcDbEntity
  8
LAY0_0
  6
Continuous
 62
     0
100
AcDbLine
 10
83121.3256835938
 20
40460.4919433594
 30
0.0
 11
83070.5871582031
 21
40412.0300292969
 31
0.0
  0
LINE
  5
203
330
1E
100
AcDbEntity
  8
LAY0_0
  6
Continuous
 62
     0
100
AcDbLine
 10
83121.3256835938
 20
40311.7858886719
 30
0.0
 11
83070.5871582031
 21
40360.25390625
 31
0.0
  0
LINE
  5
204
330
1E
100
AcDbEntity
  8
LAY0_0
  6
Continuous
 62
     0
100
AcDbLine
 10
82221.4477539063
 20
40590.8264160156
 30
0.0
 11
82305.419921875
 21
40510.6140136719
 31
0.0
  0
LINE
  5
205
330
1E
100
AcDbEntity
  8
LAY0_0
  6
Continuous
 62
     0
100
AcDbLine
 10
83121.3256835938
 20
40508.7585449219
 30
0.0
 11
83121.3256835938
 21
40460.4919433594
 31
0.0
  0
LINE
  5
206
330
1E
100
AcDbEntity
  8
LAY0_0
  6
Continuous
 62
     0
100
AcDbLine
 10
81838.5986328125
 20
40508.7585449219
 30
0.0
 11
81838.5986328125
 21
40460.4919433594
 31
0.0
  0
LINE
  5
207
330
1E
100
AcDbEntity
  8
LAY0_0
  6
Continuous
 62
     0
100
AcDbLine
 10
81838.5986328125
 20
40460.4919433594
 30
0.0
 11
81889.3432617188
 21
40412.0300292969
 31
0.0
  0
LINE
  5
208
330
1E
100
AcDbEntity
  8
LAY0_0
  6
Continuous
 62
     0
100
AcDbLine
 10
83070.5871582031
 20
40412.0300292969
 30
0.0
 11
83070.5871582031
 21
40360.25390625
 31
0.0
  0
LINE
  5
209
330
1E
100
AcDbEntity
  8
LAY0_0
  6
Continuous
 62
     0
100
AcDbLine
 10
81890.2954101563
 20
40559.0942382813
 30
0.0
 11
82254.6752929688
 21
40559.0942382813
 31
0.0
  0
LINE
  5
20A
330
1E
100
AcDbEntity
  8
LAY0_0
  6
Continuous
 62
     0
100
AcDbLine
 10
82654.4921875
 20
40510.6140136719
 30
0.0
 11
82738.4887695313
 21
40590.8386230469
 31
0.0
  0
LINE
  5
20B
330
1E
100
AcDbEntity
  8
LAY0_0
  6
Continuous
 62
     0
100
AcDbLine
 10
82199.8168945313
 20
39759.1491699219
 30
0.0
 11
82250.5615234375
 21
39807.6110839844
 31
0.0
  0
LINE
  5
20C
330
1E
100
AcDbEntity
  8
LAY0_0
  6
Continuous
 62
     0
100
AcDbLine
 10
82301.3122558594
 20
39759.1491699219
 30
0.0
 11
82665.1306152344
 21
39759.1491699219
 31
0.0
  0
LINE
  5
20D
330
1E
100
AcDbEntity
  8
LAY0_0
  6
Continuous
 62
     0
100
AcDbLine
 10
82715.8752441406
 20
39807.6110839844
 30
0.0
 11
82766.6259765625
 21
39759.1491699219
 31
0.0
  0
LINE
  5
20E
330
1E
100
AcDbEntity
  8
LAY0_0
  6
Continuous
 62
     0
100
AcDbLine
 10
82250.5615234375
 20
40311.7858886719
 30
0.0
 11
82301.3122558594
 21
40360.25390625
 31
0.0
  0
LINE
  5
20F
330
1E
100
AcDbEntity
  8
LAY0_0
  6
Continuous
 62
     0
100
AcDbLine
 10
82199.8168945313
 20
40360.25390625
 30
0.0
 11
82250.5615234375
 21
40311.7858886719
 31
0.0
  0
LINE
  5
210
330
1E
100
AcDbEntity
  8
LAY0_0
  6
Continuous
 62
     0
100
AcDbLine
 10
82715.8752441406
 20
40311.7858886719
 30
0.0
 11
82766.6259765625
 21
40360.25390625
 31
0.0
  0
LINE
  5
211
330
1E
100
AcDbEntity
  8
LAY0_0
  6
Continuous
 62
     0
100
AcDbLine
 10
82665.1306152344
 20
40360.25390625
 30
0.0
 11
82715.8752441406
 21
40311.7858886719
 31
0.0
  0
LINE
  5
212
330
1E
100
AcDbEntity
  8
LAY0_0
  6
Continuous
 62
     0
100
AcDbLine
 10
82715.8752441406
 20
40311.7858886719
 30
0.0
 11
82715.8752441406
 21
39807.6110839844
 31
0.0
  0
LINE
  5
213
330
1E
100
AcDbEntity
  8
LAY0_0
  6
Continuous
 62
     0
100
AcDbLine
 10
82766.6259765625
 20
39519.7509765625
 30
0.0
 11
83070.5871582031
 21
39519.7509765625
 31
0.0
  0
LINE
  5
214
330
1E
100
AcDbEntity
  8
LAY0_0
  6
Continuous
 62
     0
100
AcDbLine
 10
82301.3122558594
 20
39519.7509765625
 30
0.0
 11
82665.1306152344
 21
39519.7509765625
 31
0.0
  0
LINE
  5
215
330
1E
100
AcDbEntity
  8
LAY0_0
  6
Continuous
 62
     0
100
AcDbLine
 10
83121.3256835938
 20
38967.1020507813
 30
0.0
 11
83070.5871582031
 21
38918.6340332031
 31
0.0
  0
LINE
  5
216
330
1E
100
AcDbEntity
  8
LAY0_0
  6
Continuous
 62
     0
100
AcDbLine
 10
81838.5986328125
 20
38967.1020507813
 30
0.0
 11
81889.3371582031
 21
38918.6340332031
 31
0.0
  0
LINE
  5
217
330
1E
100
AcDbEntity
  8
LAY0_0
  6
Continuous
 62
     0
100
AcDbLine
 10
82665.1306152344
 20
38918.6340332031
 30
0.0
 11
82715.8752441406
 21
38967.1020507813
 31
0.0
  0
LINE
  5
218
330
1E
100
AcDbEntity
  8
LAY0_0
  6
Continuous
 62
     0
100
AcDbLine
 10
82715.8752441406
 20
38967.1020507813
 30
0.0
 11
82766.6259765625
 21
38918.6340332031
 31
0.0
  0
LINE
  5
219
330
1E
100
AcDbEntity
  8
LAY0_0
  6
Continuous
 62
     0
100
AcDbLine
 10
82250.5615234375
 20
39471.2768554688
 30
0.0
 11
82250.5615234375
 21
38967.1020507813
 31
0.0
  0
LINE
  5
21A
330
1E
100
AcDbEntity
  8
LAY0_0
  6
Continuous
 62
     0
100
AcDbLine
 10
82250.5615234375
 20
38967.1020507813
 30
0.0
 11
82301.3122558594
 21
38918.6340332031
 31
0.0
  0
LINE
  5
21B
330
1E
100
AcDbEntity
  8
LAY0_0
  6
Continuous
 62
     0
100
AcDbLine
 10
82766.6259765625
 20
38918.6340332031
 30
0.0
 11
83070.5871582031
 21
38918.6340332031
 31
0.0
  0
LINE
  5
21C
330
1E
100
AcDbEntity
  8
LAY0_0
  6
Continuous
 62
     0
100
AcDbLine
 10
81838.5986328125
 20
27832.7880859375
 30
0.0
 11
81889.3432617188
 21
27881.2622070313
 31
0.0
  0
LINE
  5
21D
330
1E
100
AcDbEntity
  8
LAY0_0
  6
Continuous
 62
     0
100
AcDbLine
 10
81970.7702636719
 20
29157.0922851563
 30
0.0
 11
81919.0673828125
 21
29106.7565917969
 31
0.0
  0
LINE
  5
21E
330
1E
100
AcDbEntity
  8
LAY0_0
  6
Continuous
 62
     0
100
AcDbLine
 10
81889.3371582031
 20
27693.6401367188
 30
0.0
 11
82199.8168945313
 21
27693.6401367188
 31
0.0
  0
LINE
  5
21F
330
1E
100
AcDbEntity
  8
LAY0_0
  6
Continuous
 62
     0
100
AcDbLine
 10
81889.3432617188
 20
27881.2622070313
 30
0.0
 11
81889.3432617188
 21
27933.0322265625
 31
0.0
  0
LINE
  5
220
330
1E
100
AcDbEntity
  8
LAY0_0
  6
Continuous
 62
     0
100
AcDbLine
 10
81838.5986328125
 20
38818.3837890625
 30
0.0
 11
81889.3371582031
 21
38866.8518066406
 31
0.0
  0
LINE
  5
221
330
1E
100
AcDbEntity
  8
LAY0_0
  6
Continuous
 62
     0
100
AcDbLine
 10
82301.3122558594
 20
38918.6340332031
 30
0.0
 11
82665.1306152344
 21
38918.6340332031
 31
0.0
  0
LINE
  5
222
330
1E
100
AcDbEntity
  8
LAY0_0
  6
Continuous
 62
     0
100
AcDbLine
 10
82333.984375
 20
29157.0922851563
 30
0.0
 11
82385.6872558594
 21
29106.7565917969
 31
0.0
  0
LINE
  5
223
330
1E
100
AcDbEntity
  8
LAY0_0
  6
Continuous
 62
     0
100
AcDbLine
 10
83121.3256835938
 20
38818.3837890625
 30
0.0
 11
83070.5810546875
 21
38866.8518066406
 31
0.0
  0
LINE
  5
224
330
1E
100
AcDbEntity
  8
LAY0_0
  6
Continuous
 62
     0
100
AcDbLine
 10
83121.3256835938
 20
38967.1020507813
 30
0.0
 11
83070.5810546875
 21
38918.6340332031
 31
0.0
  0
LINE
  5
225
330
1E
100
AcDbEntity
  8
LAY0_0
  6
Continuous
 62
     0
100
AcDbLine
 10
83070.5810546875
 20
38918.6340332031
 30
0.0
 11
83070.5810546875
 21
38866.8518066406
 31
0.0
  0
LINE
  5
226
330
1E
100
AcDbEntity
  8
LAY0_0
  6
Continuous
 62
     0
100
AcDbLine
 10
83121.3256835938
 20
38967.1020507813
 30
0.0
 11
83121.3256835938
 21
39471.2768554688
 31
0.0
  0
LINE
  5
227
330
1E
100
AcDbEntity
  8
LAY0_0
  6
Continuous
 62
     0
100
AcDbLine
 10
81889.3371582031
 20
38918.6340332031
 30
0.0
 11
82199.8168945313
 21
38918.6340332031
 31
0.0
  0
LINE
  5
228
330
1E
100
AcDbEntity
  8
LAY0_0
  6
Continuous
 62
     0
100
AcDbLine
 10
81838.5986328125
 20
39471.2768554688
 30
0.0
 11
81838.5986328125
 21
38967.1020507813
 31
0.0
  0
LINE
  5
229
330
1E
100
AcDbEntity
  8
LAY0_0
  6
Continuous
 62
     0
100
AcDbLine
 10
83121.3256835938
 20
39471.2768554688
 30
0.0
 11
83070.5871582031
 21
39519.7509765625
 31
0.0
  0
LINE
  5
22A
330
1E
100
AcDbEntity
  8
LAY0_0
  6
Continuous
 62
     0
100
AcDbLine
 10
83121.3256835938
 20
39285.4614257813
 30
0.0
 11
83121.3256835938
 21
38967.1020507813
 31
0.0
  0
LINE
  5
22B
330
1E
100
AcDbEntity
  8
LAY0_0
  6
Continuous
 62
     0
100
AcDbLine
 10
81889.3371582031
 20
38918.6340332031
 30
0.0
 11
81889.3371582031
 21
38866.8518066406
 31
0.0
  0
LINE
  5
22C
330
1E
100
AcDbEntity
  8
LAY0_0
  6
Continuous
 62
     0
100
AcDbLine
 10
81889.3432617188
 20
39519.7509765625
 30
0.0
 11
82199.8168945313
 21
39519.7509765625
 31
0.0
  0
LINE
  5
22D
330
1E
100
AcDbEntity
  8
LAY0_0
  6
Continuous
 62
     0
100
AcDbLine
 10
82301.3122558594
 20
38918.6340332031
 30
0.0
 11
82665.1306152344
 21
38918.6340332031
 31
0.0
  0
LINE
  5
22E
330
1E
100
AcDbEntity
  8
LAY0_0
  6
Continuous
 62
     0
100
AcDbLine
 10
82665.1306152344
 20
39519.7509765625
 30
0.0
 11
82715.8752441406
 21
39471.2768554688
 31
0.0
  0
LINE
  5
22F
330
1E
100
AcDbEntity
  8
LAY0_0
  6
Continuous
 62
     0
100
AcDbLine
 10
82250.5615234375
 20
39471.2768554688
 30
0.0
 11
82301.3122558594
 21
39519.7509765625
 31
0.0
  0
LINE
  5
230
330
1E
100
AcDbEntity
  8
LAY0_0
  6
Continuous
 62
     0
100
AcDbLine
 10
82199.8168945313
 20
38918.6340332031
 30
0.0
 11
82250.5615234375
 21
38967.1020507813
 31
0.0
  0
LINE
  5
231
330
1E
100
AcDbEntity
  8
LAY0_0
  6
Continuous
 62
     0
100
AcDbLine
 10
82715.8752441406
 20
39471.2768554688
 30
0.0
 11
82766.6259765625
 21
39519.7509765625
 31
0.0
  0
LINE
  5
232
330
1E
100
AcDbEntity
  8
LAY0_0
  6
Continuous
 62
     0
100
AcDbLine
 10
81838.5986328125
 20
39471.2768554688
 30
0.0
 11
81889.3432617188
 21
39519.7509765625
 31
0.0
  0
LINE
  5
233
330
1E
100
AcDbEntity
  8
LAY0_0
  6
Continuous
 62
     0
100
AcDbLine
 10
82715.8752441406
 20
39471.2768554688
 30
0.0
 11
82715.8752441406
 21
38967.1020507813
 31
0.0
  0
LINE
  5
234
330
1E
100
AcDbEntity
  8
LAY0_0
  6
Continuous
 62
     0
100
AcDbLine
 10
82199.8168945313
 20
39519.7509765625
 30
0.0
 11
82250.5615234375
 21
39471.2768554688
 31
0.0
  0
LINE
  5
235
330
1E
100
AcDbEntity
  8
LAY0_0
  6
Continuous
 62
     0
100
AcDbLine
 10
81889.3432617188
 20
40412.0300292969
 30
0.0
 11
81889.3432617188
 21
40360.25390625
 31
0.0
  0
LINE
  5
236
330
1E
100
AcDbEntity
  8
LAY0_0
  6
Continuous
 62
     0
100
AcDbLine
 10
56067.0288085938
 20
36341.3513183594
 30
0.0
 11
56783.3129882813
 21
36341.3513183594
 31
0.0
  0
LINE
  5
237
330
1E
100
AcDbEntity
  8
LAY0_0
  6
Continuous
 62
     0
100
AcDbLine
 10
56990.1245117188
 20
36341.3513183594
 30
0.0
 11
57000.9887695313
 21
36341.3513183594
 31
0.0
  0
LINE
  5
238
330
1E
100
AcDbEntity
  8
LAY0_0
  6
Continuous
 62
     0
100
AcDbLine
 10
61879.60205078129
 20
41336.3586425781
 30
0.0
 11
61879.60205078129
 21
41726.3793945313
 31
0.0
  0
LINE
  5
239
330
1E
100
AcDbEntity
  8
LAY0_0
  6
Continuous
 62
     0
100
AcDbLine
 10
56990.1245117188
 20
31041.3330078125
 30
0.0
 11
57000.9887695313
 21
31041.3330078125
 31
0.0
  0
LINE
  5
23A
330
1E
100
AcDbEntity
  8
LAY0_0
  6
Continuous
 62
     0
100
AcDbLine
 10
55963.6169433594
 20
31141.9921875
 30
0.0
 11
55963.6169433594
 21
32397.6135253906
 31
0.0
  0
LINE
  5
23B
330
1E
100
AcDbEntity
  8
LAY0_0
  6
Continuous
 62
     0
100
AcDbLine
 10
56886.71875
 20
32397.6135253906
 30
0.0
 11
56835.009765625
 21
32447.94921875
 31
0.0
  0
LINE
  5
23C
330
1E
100
AcDbEntity
  8
LAY0_0
  6
Continuous
 62
     0
100
AcDbLine
 10
56067.0288085938
 20
31041.3330078125
 30
0.0
 11
56783.3129882813
 21
31041.3330078125
 31
0.0
  0
LINE
  5
23D
330
1E
100
AcDbEntity
  8
LAY0_0
  6
Continuous
 62
     0
100
AcDbLine
 10
56783.3129882813
 20
31041.3330078125
 30
0.0
 11
56067.0288085938
 21
31041.3330078125
 31
0.0
  0
LINE
  5
23E
330
1E
100
AcDbEntity
  8
LAY0_0
  6
Continuous
 62
     0
100
AcDbLine
 10
61262.47558593749
 20
41726.42822265629
 30
0.0
 11
61262.47558593749
 21
41336.3586425781
 31
0.0
  0
LINE
  5
23F
330
1E
100
AcDbEntity
  8
LAY0_0
  6
Continuous
 62
     0
100
AcDbLine
 10
80679.60205078131
 20
41726.42822265629
 30
0.0
 11
80679.6020507813
 21
41336.3647460938
 31
0.0
  0
LINE
  5
240
330
1E
100
AcDbEntity
  8
LAY0_0
  6
Continuous
 62
     0
100
AcDbLine
 10
86824.31640625
 20
41336.3586425781
 30
0.0
 11
86824.31640625001
 21
41726.42822265629
 31
0.0
  0
LINE
  5
241
330
1E
100
AcDbEntity
  8
LAY0_0
  6
Continuous
 62
     0
100
AcDbLine
 10
84051.7456054688
 20
32859.423828125
 30
0.0
 11
83183.0322265625
 21
32859.423828125
 31
0.0
  0
LINE
  5
242
330
1E
100
AcDbEntity
  8
LAY0_0
  6
Continuous
 62
     0
100
AcDbLine
 10
83183.0322265625
 20
32859.423828125
 30
0.0
 11
83183.0322265625
 21
33529.9621582031
 31
0.0
  0
LINE
  5
243
330
1E
100
AcDbEntity
  8
LAY0_0
  6
Continuous
 62
     0
100
AcDbLine
 10
48340.4602050781
 20
41336.3586425781
 30
0.0
 11
47311.4318847656
 21
41336.3586425781
 31
0.0
  0
LINE
  5
244
330
1E
100
AcDbEntity
  8
LAY0_0
  6
Continuous
 62
     0
100
AcDbLine
 10
61879.60205078129
 20
41336.3586425781
 30
0.0
 11
61879.60205078129
 21
41726.3793945313
 31
0.0
  0
LINE
  5
245
330
1E
100
AcDbEntity
  8
LAY0_0
  6
Continuous
 62
     0
100
AcDbLine
 10
86824.31640625
 20
41336.3586425781
 30
0.0
 11
87918.2861328125
 21
41336.3586425781
 31
0.0
  0
LINE
  5
246
330
1E
100
AcDbEntity
  8
LAY0_0
  6
Continuous
 62
     0
100
AcDbLine
 10
87918.2861328125
 20
41336.3586425781
 30
0.0
 11
87918.2861328125
 21
41726.42822265629
 31
0.0
  0
LINE
  5
247
330
1E
100
AcDbEntity
  8
LAY0_0
  6
Continuous
 62
     0
100
AcDbLine
 10
47901.55944824219
 20
32447.94921875
 30
0.0
 11
47849.85046386719
 21
32397.6196289063
 31
0.0
  0
LINE
  5
248
330
1E
100
AcDbEntity
  8
LAY0_0
  6
Continuous
 62
     0
100
AcDbLine
 10
48772.9583740234
 20
32397.6196289063
 30
0.0
 11
48721.2554931641
 21
32447.94921875
 31
0.0
  0
LINE
  5
249
330
1E
100
AcDbEntity
  8
LAY0_0
  6
Continuous
 62
     0
100
AcDbLine
 10
47953.2623291016
 20
31041.3330078125
 30
0.0
 11
47849.85046386719
 21
31141.9921875
 31
0.0
  0
LINE
  5
24A
330
1E
100
AcDbEntity
  8
LAY0_0
  6
Continuous
 62
     0
100
AcDbLine
 10
47849.85046386719
 20
31141.9921875
 30
0.0
 11
47746.4447021484
 21
31041.3330078125
 31
0.0
  0
LINE
  5
24B
330
1E
100
AcDbEntity
  8
LAY0_0
  6
Continuous
 62
     0
100
AcDbLine
 10
47953.2623291016
 20
31041.3330078125
 30
0.0
 11
48669.5495605469
 21
31041.3330078125
 31
0.0
  0
LINE
  5
24C
330
1E
100
AcDbEntity
  8
LAY0_0
  6
Continuous
 62
     0
100
AcDbLine
 10
48772.9583740234
 20
32397.6196289063
 30
0.0
 11
48772.9583740234
 21
31141.9921875
 31
0.0
  0
LINE
  5
24D
330
1E
100
AcDbEntity
  8
LAY0_0
  6
Continuous
 62
     0
100
AcDbLine
 10
48876.36413574219
 20
31041.3330078125
 30
0.0
 11
48772.9583740234
 21
31141.9921875
 31
0.0
  0
LINE
  5
24E
330
1E
100
AcDbEntity
  8
LAY0_0
  6
Continuous
 62
     0
100
AcDbLine
 10
48772.9583740234
 20
31141.9921875
 30
0.0
 11
48669.5495605469
 21
31041.3330078125
 31
0.0
  0
LINE
  5
24F
330
1E
100
AcDbEntity
  8
LAY0_0
  6
Continuous
 62
     0
100
AcDbLine
 10
48772.9583740234
 20
31165.2465820313
 30
0.0
 11
55963.6169433594
 21
31165.2465820313
 31
0.0
  0
LINE
  5
250
330
1E
100
AcDbEntity
  8
LAY0_0
  6
Continuous
 62
     0
100
AcDbLine
 10
56067.0288085938
 20
31041.3330078125
 30
0.0
 11
55963.6169433594
 21
31141.9921875
 31
0.0
  0
LINE
  5
251
330
1E
100
AcDbEntity
  8
LAY0_0
  6
Continuous
 62
     0
100
AcDbLine
 10
55963.6169433594
 20
31141.9921875
 30
0.0
 11
55860.205078125
 21
31041.3330078125
 31
0.0
  0
LINE
  5
252
330
1E
100
AcDbEntity
  8
LAY0_0
  6
Continuous
 62
     0
100
AcDbLine
 10
56886.71875
 20
32397.6135253906
 30
0.0
 11
56886.71875
 21
31141.9921875
 31
0.0
  0
LINE
  5
253
330
1E
100
AcDbEntity
  8
LAY0_0
  6
Continuous
 62
     0
100
AcDbLine
 10
56015.3198242188
 20
32447.94921875
 30
0.0
 11
56835.009765625
 21
32447.94921875
 31
0.0
  0
LINE
  5
254
330
1E
100
AcDbEntity
  8
LAY0_0
  6
Continuous
 62
     0
100
AcDbLine
 10
56886.71875
 20
31141.9921875
 30
0.0
 11
56783.3129882813
 21
31041.3330078125
 31
0.0
  0
LINE
  5
255
330
1E
100
AcDbEntity
  8
LAY0_0
  6
Continuous
 62
     0
100
AcDbLine
 10
47953.2623291016
 20
31041.3330078125
 30
0.0
 11
48669.5495605469
 21
31041.3330078125
 31
0.0
  0
LINE
  5
256
330
1E
100
AcDbEntity
  8
LAY0_0
  6
Continuous
 62
     0
100
AcDbLine
 10
56015.3198242188
 20
32447.94921875
 30
0.0
 11
55963.6169433594
 21
32397.6135253906
 31
0.0
  0
LINE
  5
257
330
1E
100
AcDbEntity
  8
LAY0_0
  6
Continuous
 62
     0
100
AcDbLine
 10
56990.1245117188
 20
31041.3330078125
 30
0.0
 11
56886.71875
 21
31141.9921875
 31
0.0
  0
LINE
  5
258
330
1E
100
AcDbEntity
  8
LAY0_0
  6
Continuous
 62
     0
100
AcDbLine
 10
83121.3256835938
 20
39807.6110839844
 30
0.0
 11
83121.3256835938
 21
40311.7858886719
 31
0.0
  0
LINE
  5
259
330
1E
100
AcDbEntity
  8
LAY0_0
  6
Continuous
 62
     0
100
AcDbLine
 10
83121.3256835938
 20
38621.2585449219
 30
0.0
 11
83121.3256835938
 21
38818.3837890625
 31
0.0
  0
LINE
  5
25A
330
1E
100
AcDbEntity
  8
LAY0_0
  6
Continuous
 62
     0
100
AcDbLine
 10
81838.5986328125
 20
38621.2585449219
 30
0.0
 11
81838.5986328125
 21
38818.3837890625
 31
0.0
  0
LINE
  5
25B
330
1E
100
AcDbEntity
  8
LAY0_0
  6
Continuous
 62
     0
100
AcDbLine
 10
81890.2954101563
 20
38570.9289550781
 30
0.0
 11
83069.62890625
 21
38570.9289550781
 31
0.0
  0
LINE
  5
25C
330
1E
100
AcDbEntity
  8
LAY0_0
  6
Continuous
 62
     0
100
AcDbLine
 10
82333.984375
 20
38295.6909179688
 30
0.0
 11
81970.7702636719
 21
38295.6909179688
 31
0.0
  0
LINE
  5
25D
330
1E
100
AcDbEntity
  8
LAY0_0
  6
Continuous
 62
     0
100
AcDbLine
 10
81919.0673828125
 20
38346.0144042969
 30
0.0
 11
81919.0673828125
 21
38570.9289550781
 31
0.0
  0
LINE
  5
25E
330
1E
100
AcDbEntity
  8
LAY0_0
  6
Continuous
 62
     0
100
AcDbLine
 10
81919.0673828125
 20
38570.9289550781
 30
0.0
 11
82385.6872558594
 21
38570.9289550781
 31
0.0
  0
LINE
  5
25F
330
1E
100
AcDbEntity
  8
LAY0_0
  6
Continuous
 62
     0
100
AcDbLine
 10
82385.6872558594
 20
38570.9289550781
 30
0.0
 11
82385.6872558594
 21
38346.0144042969
 31
0.0
  0
LINE
  5
260
330
1E
100
AcDbEntity
  8
LAY0_0
  6
Continuous
 62
     0
100
AcDbLine
 10
82686.7858886719
 20
40903.6560058594
 30
0.0
 11
82738.4887695313
 21
40853.3264160156
 31
0.0
  0
LINE
  5
261
330
1E
100
AcDbEntity
  8
LAY0_0
  6
Continuous
 62
     0
100
AcDbLine
 10
81889.3432617188
 20
40360.25390625
 30
0.0
 11
82199.8168945313
 21
40360.25390625
 31
0.0
  0
LINE
  5
262
330
1E
100
AcDbEntity
  8
LAY0_0
  6
Continuous
 62
     0
100
AcDbLine
 10
82705.2368164063
 20
40559.0942382813
 30
0.0
 11
83069.6533203125
 21
40559.0942382813
 31
0.0
  0
LINE
  5
263
330
1E
100
AcDbEntity
  8
LAY0_0
  6
Continuous
 62
     0
100
AcDbLine
 10
81838.5986328125
 20
40311.7858886719
 30
0.0
 11
81889.3432617188
 21
40360.25390625
 31
0.0
  0
LINE
  5
264
330
1E
100
AcDbEntity
  8
LAY0_0
  6
Continuous
 62
     0
100
AcDbLine
 10
81838.5986328125
 20
39807.6110839844
 30
0.0
 11
81838.5986328125
 21
40311.7858886719
 31
0.0
  0
LINE
  5
265
330
1E
100
AcDbEntity
  8
LAY0_0
  6
Continuous
 62
     0
100
AcDbLine
 10
82654.4921875
 20
40510.6140136719
 30
0.0
 11
82305.419921875
 21
40510.6140136719
 31
0.0
  0
LINE
  5
266
330
1E
100
AcDbEntity
  8
LAY0_0
  6
Continuous
 62
     0
100
AcDbLine
 10
82221.4477539063
 20
40853.3264160156
 30
0.0
 11
82273.14453125
 21
40903.6560058594
 31
0.0
  0
LINE
  5
267
330
1E
100
AcDbEntity
  8
LAY0_0
  6
Continuous
 62
     0
100
AcDbLine
 10
82273.14453125
 20
40903.6560058594
 30
0.0
 11
82686.7858886719
 21
40903.6560058594
 31
0.0
  0
LINE
  5
268
330
1E
100
AcDbEntity
  8
LAY0_0
  6
Continuous
 62
     0
100
AcDbLine
 10
82738.4887695313
 20
40853.3264160156
 30
0.0
 11
82738.4887695313
 21
40590.8386230469
 31
0.0
  0
LINE
  5
269
330
1E
100
AcDbEntity
  8
LAY0_0
  6
DASHED2
 62
     0
100
AcDbLine
 10
90948.07739257811
 20
34526.0192871094
 30
0.0
 11
89757.84912109381
 21
34526.0192871094
 31
0.0
  0
LINE
  5
26A
330
1E
100
AcDbEntity
  8
LAY0_0
  6
DASHED2
 62
     0
100
AcDbLine
 10
91171.52709960939
 20
34651.6052246094
 30
0.0
 11
90948.07739257811
 21
34777.1789550781
 31
0.0
  0
LINE
  5
26B
330
1E
100
AcDbEntity
  8
LAY0_0
  6
DASHED2
 62
     0
100
AcDbLine
 10
90948.07739257811
 20
34777.1789550781
 30
0.0
 11
89757.84912109381
 21
34777.1789550781
 31
0.0
  0
LINE
  5
26C
330
1E
100
AcDbEntity
  8
LAY0_0
  6
DASHED2
 62
     0
100
AcDbLine
 10
91171.52709960939
 20
34651.6052246094
 30
0.0
 11
90948.07739257811
 21
34526.0192871094
 31
0.0
  0
LINE
  5
26D
330
1E
100
AcDbEntity
  8
LAY0_0
  6
Continuous
 62
     0
100
AcDbLine
 10
83183.0322265625
 20
33529.9621582031
 30
0.0
 11
84051.7456054688
 21
33529.9621582031
 31
0.0
  0
LINE
  5
26E
330
1E
100
AcDbEntity
  8
LAY0_0
  6
Continuous
 62
     0
100
AcDbLine
 10
84051.7456054688
 20
33529.9621582031
 30
0.0
 11
84051.7456054688
 21
32859.423828125
 31
0.0
  0
LINE
  5
26F
330
1E
100
AcDbEntity
  8
LAY0_0
  6
DASHED2
 62
     0
100
AcDbLine
 10
89757.84912109381
 20
34777.1789550781
 30
0.0
 11
89531.40869140631
 21
34696.9482421875
 31
0.0
  0
LINE
  5
270
330
1E
100
AcDbEntity
  8
LAY0_0
  6
DASHED2
 62
     0
100
AcDbLine
 10
89757.84912109381
 20
34526.0192871094
 30
0.0
 11
89523.71215820311
 21
34608.9721679688
 31
0.0
  0
LINE
  5
271
330
1E
100
AcDbEntity
  8
LAY0_0
  6
Continuous
 62
     0
100
AcDbLine
 10
82333.984375
 20
38295.6909179688
 30
0.0
 11
82385.6872558594
 21
38346.0144042969
 31
0.0
  0
LINE
  5
272
330
1E
100
AcDbEntity
  8
LAY0_0
  6
Continuous
 62
     0
100
AcDbLine
 10
81838.5986328125
 20
40508.7585449219
 30
0.0
 11
81890.2954101563
 21
40559.0942382813
 31
0.0
  0
LINE
  5
273
330
1E
100
AcDbEntity
  8
LAY0_0
  6
Continuous
 62
     0
100
AcDbLine
 10
83069.6533203125
 20
40559.0942382813
 30
0.0
 11
83121.3623046875
 21
40508.7585449219
 31
0.0
  0
LINE
  5
274
330
1E
100
AcDbEntity
  8
LAY0_0
  6
Continuous
 62
     0
100
AcDbLine
 10
81838.5986328125
 20
38621.2585449219
 30
0.0
 11
81890.2954101563
 21
38570.9289550781
 31
0.0
  0
LINE
  5
275
330
1E
100
AcDbEntity
  8
LAY0_0
  6
Continuous
 62
     0
100
AcDbLine
 10
83069.62890625
 20
38570.9289550781
 30
0.0
 11
83121.3256835938
 21
38621.2585449219
 31
0.0
  0
LINE
  5
276
330
1E
100
AcDbEntity
  8
LAY0_0
  6
Continuous
 62
     0
100
AcDbLine
 10
81838.5986328125
 20
39619.9890136719
 30
0.0
 11
81889.3432617188
 21
39571.5209960938
 31
0.0
  0
LINE
  5
277
330
1E
100
AcDbEntity
  8
LAY0_0
  6
Continuous
 62
     0
100
AcDbLine
 10
81970.7702636719
 20
38295.6909179688
 30
0.0
 11
81919.0673828125
 21
38346.0144042969
 31
0.0
  0
LINE
  5
278
330
1E
100
AcDbEntity
  8
LAY0_0
  6
Continuous
 62
     0
100
AcDbLine
 10
81889.3371582031
 20
39759.1491699219
 30
0.0
 11
82199.8168945313
 21
39759.1491699219
 31
0.0
  0
LINE
  5
279
330
1E
100
AcDbEntity
  8
LAY0_0
  6
Continuous
 62
     0
100
AcDbLine
 10
81889.3432617188
 20
39571.5209960938
 30
0.0
 11
81889.3432617188
 21
39519.7509765625
 31
0.0
  0
LINE
  5
27A
330
1E
100
AcDbEntity
  8
LAY0_0
  6
Continuous
 62
     0
100
AcDbLine
 10
48200.0915527344
 20
53113.6535644531
 30
0.0
 11
59781.8298339844
 21
53113.6535644531
 31
0.0
  0
LINE
  5
27B
330
1E
100
AcDbEntity
  8
LAY0_0
  6
Continuous
 62
     0
100
AcDbLine
 10
51922.7905273438
 20
57277.2399902344
 30
0.0
 11
51971.7529296875
 21
57277.2399902344
 31
0.0
  0
LINE
  5
27C
330
1E
100
AcDbEntity
  8
LAY0_0
  6
CENTER
 62
     0
 48
100.0
100
AcDbLine
 10
63246.0021972656
 20
48651.4770507813
 30
0.0
 11
63246.0021972656
 21
46841.943359375
 31
0.0
  0
LINE
  5
27D
330
1E
100
AcDbEntity
  8
LAY0_0
  6
Continuous
 62
     0
100
AcDbLine
 10
90856.04248046881
 20
47556.2316894531
 30
0.0
 11
90771.0693359375
 21
47639.9719238281
 31
0.0
  0
LINE
  5
27E
330
1E
100
AcDbEntity
  8
LAY0_0
  6
Continuous
 62
     0
100
AcDbLine
 10
51971.7529296875
 20
57277.2399902344
 30
0.0
 11
52103.1860351563
 21
57313.2080078125
 31
0.0
  0
LINE
  5
27F
330
1E
100
AcDbEntity
  8
LAY0_0
  6
Continuous
 62
     0
100
AcDbLine
 10
53990.9606933594
 20
55794.3298339844
 30
0.0
 11
54404.5959472656
 21
55794.3298339844
 31
0.0
  0
LINE
  5
280
330
1E
100
AcDbEntity
  8
LAY0_0
  6
DASHED2
 62
     0
100
AcDbLine
 10
59110.8825683594
 20
47174.4384765625
 30
0.0
 11
59109.6740722656
 21
47175.2868652344
 31
0.0
  0
LINE
  5
281
330
1E
100
AcDbEntity
  8
LAY0_0
  6
Continuous
 62
     0
100
AcDbLine
 10
54456.298828125
 20
55746.7102050781
 30
0.0
 11
54404.5959472656
 21
55794.3298339844
 31
0.0
  0
LINE
  5
282
330
1E
100
AcDbEntity
  8
LAY0_0
  6
DASHED2
 62
     0
100
AcDbLine
 10
58902.8564453125
 20
47318.1396484375
 30
0.0
 11
59110.8825683594
 21
47174.4384765625
 31
0.0
  0
LINE
  5
283
330
1E
100
AcDbEntity
  8
LAY0_0
  6
Continuous
 62
     0
100
AcDbLine
 10
50423.3764648438
 20
56175.2746582031
 30
0.0
 11
50331.9091796875
 21
56072.7233886719
 31
0.0
  0
LINE
  5
284
330
1E
100
AcDbEntity
  8
LAY0_0
  6
Continuous
 62
     0
100
AcDbLine
 10
53209.8388671875
 20
57008.7829589844
 30
0.0
 11
53209.8388671875
 21
57084.1491699219
 31
0.0
  0
LINE
  5
285
330
1E
100
AcDbEntity
  8
LAY0_0
  6
Continuous
 62
     0
100
AcDbLine
 10
49854.6264648438
 20
59365.7653808594
 30
0.0
 11
49906.3354492188
 21
59413.3728027344
 31
0.0
  0
LINE
  5
286
330
1E
100
AcDbEntity
  8
LAY0_0
  6
Continuous
 62
     0
100
AcDbLine
 10
49958.0322265625
 20
54651.46484375
 30
0.0
 11
49958.0322265625
 21
54066.0339355469
 31
0.0
  0
LINE
  5
287
330
1E
100
AcDbEntity
  8
LAY0_0
  6
Continuous
 62
     0
100
AcDbLine
 10
86150.9643554688
 20
53770.5200195313
 30
0.0
 11
85065.185546875
 21
53389.5629882813
 31
0.0
  0
LINE
  5
288
330
1E
100
AcDbEntity
  8
LAY0_0
  6
Continuous
 62
     0
100
AcDbLine
 10
50423.3764648438
 20
59127.6550292969
 30
0.0
 11
50023.4436035156
 21
59243.8903808594
 31
0.0
  0
LINE
  5
289
330
1E
100
AcDbEntity
  8
LAY0_0
  6
Continuous
 62
     0
100
AcDbLine
 10
61879.60205078131
 20
48889.5690917969
 30
0.0
 11
61931.29882812501
 21
48651.4770507813
 31
0.0
  0
LINE
  5
28A
330
1E
100
AcDbEntity
  8
LAY0_0
  6
Continuous
 62
     0
100
AcDbLine
 10
90160.0830078125
 20
56080.6972265244
 30
0.0
 11
81878.5400390625
 21
57107.5622558594
 31
0.0
  0
LINE
  5
28B
330
1E
100
AcDbEntity
  8
LAY0_0
  6
Continuous
 62
     0
100
AcDbLine
 10
83514.0502929688
 20
53746.7163085938
 30
0.0
 11
85065.185546875
 21
53746.7163085938
 31
0.0
  0
LINE
  5
28C
330
1E
100
AcDbEntity
  8
LAY0_0
  6
CENTER
 62
     0
 48
100.0
100
AcDbLine
 10
88425.93994140631
 20
47127.6672363281
 30
0.0
 11
88425.93994140631
 21
48889.5690917969
 31
0.0
  0
LINE
  5
28D
330
1E
100
AcDbEntity
  8
LAY0_0
  6
Continuous
 62
     0
100
AcDbLine
 10
78293.4326171875
 20
53774.3469238281
 30
0.0
 11
78550.4516601563
 21
52431.8359375
 31
0.0
  0
LINE
  5
28E
330
1E
100
AcDbEntity
  8
LAY0_0
  6
Continuous
 62
     0
100
AcDbLine
 10
78550.4516601563
 20
52431.8359375
 30
0.0
 11
79419.9462890625
 21
53329.7119140625
 31
0.0
  0
LINE
  5
28F
330
1E
100
AcDbEntity
  8
LAY0_0
  6
Continuous
 62
     0
100
AcDbLine
 10
51772.8515625
 20
59618.1396484375
 30
0.0
 11
51974.5056152344
 21
59556.2316894531
 31
0.0
  0
LINE
  5
290
330
1E
100
AcDbEntity
  8
LAY0_0
  6
CENTER
 62
     0
 48
100.0
100
AcDbLine
 10
58696.0388183594
 20
46841.943359375
 30
0.0
 11
58696.0388183594
 21
48889.5690917969
 31
0.0
  0
LINE
  5
291
330
1E
100
AcDbEntity
  8
LAY0_0
  6
CENTER
 62
     0
 48
100.0
100
AcDbLine
 10
87081.640625
 20
48889.5690917969
 30
0.0
 11
87081.640625
 21
47127.6672363281
 31
0.0
  0
LINE
  5
292
330
1E
100
AcDbEntity
  8
LAY0_0
  6
Continuous
 62
     0
100
AcDbLine
 10
90856.04248046881
 20
47556.2316894531
 30
0.0
 11
90700.93994140631
 21
47413.3728027344
 31
0.0
  0
LINE
  5
293
330
1E
100
AcDbEntity
  8
LAY0_0
  6
Continuous
 62
     0
100
AcDbLine
 10
90722.69897460939
 20
47433.4228515625
 30
0.0
 11
90605.96923828131
 21
47548.4619140625
 31
0.0
  0
LINE
  5
294
330
1E
100
AcDbEntity
  8
LAY0_0
  6
Continuous
 62
     0
100
AcDbLine
 10
85065.185546875
 20
53389.5629882813
 30
0.0
 11
83514.0502929688
 21
53389.5629882813
 31
0.0
  0
LINE
  5
295
330
1E
100
AcDbEntity
  8
LAY0_0
  6
Continuous
 62
     0
100
AcDbLine
 10
91373.08349609381
 20
49318.1335449219
 30
0.0
 11
91424.79248046881
 21
49270.5200195313
 31
0.0
  0
LINE
  5
296
330
1E
100
AcDbEntity
  8
LAY0_0
  6
CENTER
 62
     0
 48
100.0
100
AcDbLine
 10
59110.8825683594
 20
47174.4384765625
 30
0.0
 11
62054.541015625
 21
45937.1826171875
 31
0.0
  0
LINE
  5
297
330
1E
100
AcDbEntity
  8
LAY0_0
  6
DASHED2
 62
     0
100
AcDbLine
 10
79810.8032226563
 20
48937.1826171875
 30
0.0
 11
79696.6674804688
 21
49001.0498046875
 31
0.0
  0
LINE
  5
298
330
1E
100
AcDbEntity
  8
LAY0_0
  6
CENTER
 62
     0
 48
100.0
100
AcDbLine
 10
87081.640625
 20
47127.6672363281
 30
0.0
 11
88425.93994140631
 21
47127.6672363281
 31
0.0
  0
LINE
  5
299
330
1E
100
AcDbEntity
  8
LAY0_0
  6
Continuous
 62
     0
100
AcDbLine
 10
90649.22485351561
 20
53080.0354003906
 30
0.0
 11
90700.93994140631
 21
53032.421875
 31
0.0
  0
LINE
  5
29A
330
1E
100
AcDbEntity
  8
LAY0_0
  6
Continuous
 62
     0
100
AcDbLine
 10
51871.09375
 20
57277.98500861821
 30
0.0
 11
51871.09375
 21
57222.900390625
 31
0.0
  0
LINE
  5
29B
330
1E
100
AcDbEntity
  8
LAY0_0
  6
Continuous
 62
     0
100
AcDbLine
 10
81497.5830078125
 20
52509.6557617188
 30
0.0
 11
81491.6870117188
 21
51856.1889648438
 31
0.0
  0
LINE
  5
29C
330
1E
100
AcDbEntity
  8
LAY0_0
  6
Continuous
 62
     0
100
AcDbLine
 10
53263.91582576095
 20
60274.93735737331
 30
0.0
 11
52803.87728527334
 21
60910.4489317373
 31
0.0
  0
LINE
  5
29E
330
1E
100
AcDbEntity
  8
LAY0_0
  6
Continuous
 62
     0
100
AcDbLine
 10
89666.09497070311
 20
52889.84375
 30
0.0
 11
88528.33862304689
 21
52889.84375
 31
0.0
  0
LINE
  5
29F
330
1E
100
AcDbEntity
  8
LAY0_0
  6
Continuous
 62
     0
100
AcDbLine
 10
89666.09497070311
 20
52079.0832519531
 30
0.0
 11
89666.09497070311
 21
52889.84375
 31
0.0
  0
LINE
  5
2A0
330
1E
100
AcDbEntity
  8
LAY0_0
  6
Continuous
 62
     0
100
AcDbLine
 10
86150.9643554688
 20
54127.6672363281
 30
0.0
 11
86150.9643554688
 21
53413.37890625
 31
0.0
  0
LINE
  5
2A1
330
1E
100
AcDbEntity
  8
LAY0_0
  6
Continuous
 62
     0
100
AcDbLine
 10
85065.185546875
 20
53746.7163085938
 30
0.0
 11
86150.9643554688
 21
54127.6672363281
 31
0.0
  0
LINE
  5
2A2
330
1E
100
AcDbEntity
  8
LAY0_0
  6
Continuous
 62
     0
100
AcDbLine
 10
88504.35791015631
 20
54771.8322753906
 30
0.0
 11
88899.6337890625
 21
54553.4057617188
 31
0.0
  0
LINE
  5
2A3
330
1E
100
AcDbEntity
  8
LAY0_0
  6
Continuous
 62
     0
100
AcDbLine
 10
51922.7905273438
 20
60651.4709472656
 30
0.0
 11
51819.384765625
 21
60746.7102050781
 31
0.0
  0
LINE
  5
2A4
330
1E
100
AcDbEntity
  8
LAY0_0
  6
Continuous
 62
     0
100
AcDbLine
 10
90700.93994140631
 20
53032.421875
 30
0.0
 11
90907.75146484381
 21
53032.421875
 31
0.0
  0
LINE
  5
2A5
330
1E
100
AcDbEntity
  8
LAY0_0
  6
Continuous
 62
     0
100
AcDbLine
 10
82376.5625
 20
52318.1396484375
 30
0.0
 11
82531.6772460938
 21
51841.9494628906
 31
0.0
  0
LINE
  5
2A6
330
1E
100
AcDbEntity
  8
LAY0_0
  6
Continuous
 62
     0
100
AcDbLine
 10
86150.9643554688
 20
54127.6672363281
 30
0.0
 11
88374.2431640625
 21
54127.66723632811
 31
0.0
  0
LINE
  5
2A7
330
1E
100
AcDbEntity
  8
LAY0_0
  6
Continuous
 62
     0
100
AcDbLine
 10
89356.6162109375
 20
56080.0415039063
 30
0.0
 11
88084.6923828125
 21
54127.6672363281
 31
0.0
  0
LINE
  5
2A8
330
1E
100
AcDbEntity
  8
LAY0_0
  6
Continuous
 62
     0
100
AcDbLine
 10
49906.3354492188
 20
59413.3728027344
 30
0.0
 11
50423.3764648438
 21
59413.3728027344
 31
0.0
  0
LINE
  5
2A9
330
1E
100
AcDbEntity
  8
LAY0_0
  6
Continuous
 62
     0
100
AcDbLine
 10
45873.4069824219
 20
49127.6611328125
 30
0.0
 11
45976.8127441406
 21
49318.1335449219
 31
0.0
  0
LINE
  5
2AB
330
1E
100
AcDbEntity
  8
LAY0_0
  6
Continuous
 62
     0
100
AcDbLine
 10
46287.0422363281
 20
49270.5200195313
 30
0.0
 11
46235.33020019531
 21
49318.1335449219
 31
0.0
  0
LINE
  5
2AC
330
1E
100
AcDbEntity
  8
LAY0_0
  6
Continuous
 62
     0
100
AcDbLine
 10
53048.2543945313
 20
55270.5200195313
 30
0.0
 11
53048.2543945313
 21
57270.5200195313
 31
0.0
  0
LINE
  5
2AD
330
1E
100
AcDbEntity
  8
LAY0_0
  6
Continuous
 62
     0
100
AcDbLine
 10
52466.1560058594
 20
54066.0339355469
 30
0.0
 11
52905.17578125
 21
54222.900390625
 31
0.0
  0
LINE
  5
2AE
330
1E
100
AcDbEntity
  8
LAY0_0
  6
Continuous
 62
     0
100
AcDbLine
 10
60092.0532226563
 20
52032.421875
 30
0.0
 11
60453.9794921875
 21
51889.5629882813
 31
0.0
  0
LINE
  5
2AF
330
1E
100
AcDbEntity
  8
LAY0_0
  6
CENTER
 62
     0
 48
100.0
100
AcDbLine
 10
79810.8032226563
 20
48937.1826171875
 30
0.0
 11
91424.79248046881
 21
48937.1826171875
 31
0.0
  0
LINE
  5
2B0
330
1E
100
AcDbEntity
  8
LAY0_0
  6
Continuous
 62
     0
100
AcDbLine
 10
45821.6979980469
 20
48508.6181640625
 30
0.0
 11
45443.6889648438
 21
47812.3168945313
 31
0.0
  0
LINE
  5
2B2
330
1E
100
AcDbEntity
  8
LAY0_0
  6
Continuous
 62
     0
100
AcDbLine
 10
45414.5446777344
 20
47556.2316894531
 30
0.0
 11
45925.1037597656
 21
47556.2316894531
 31
0.0
  0
LINE
  5
2B3
330
1E
100
AcDbEntity
  8
LAY0_0
  6
Continuous
 62
     0
100
AcDbLine
 10
45252.9541015625
 20
47746.7041015625
 30
0.0
 11
45252.9541015625
 21
47662.5061035156
 31
0.0
  0
LINE
  5
2B4
330
1E
100
AcDbEntity
  8
LAY0_0
  6
Continuous
 62
     0
100
AcDbLine
 10
46287.0422363281
 20
48889.5690917969
 30
0.0
 11
46287.0422363281
 21
49270.5200195313
 31
0.0
  0
LINE
  5
2B5
330
1E
100
AcDbEntity
  8
LAY0_0
  6
Continuous
 62
     0
100
AcDbLine
 10
87133.3374023438
 20
50699.0905761719
 30
0.0
 11
91269.677734375
 21
50699.0905761719
 31
0.0
  0
LINE
  5
2B8
330
1E
100
AcDbEntity
  8
LAY0_0
  6
Continuous
 62
     0
100
AcDbLine
 10
82434.6496582031
 20
52139.7827148438
 30
0.0
 11
77610.3759765625
 21
54043.9758300781
 31
0.0
  0
LINE
  5
2B9
330
1E
100
AcDbEntity
  8
LAY0_0
  6
Continuous
 62
     0
100
AcDbLine
 10
83048.7182617188
 20
49603.8513183594
 30
0.0
 11
81911.2182617188
 21
49603.8513183594
 31
0.0
  0
LINE
  5
2BB
330
1E
100
AcDbEntity
  8
LAY0_0
  6
Continuous
 62
     0
100
AcDbLine
 10
81032.2509765625
 20
49746.7041015625
 30
0.0
 11
81032.2509765625
 21
49318.1335449219
 31
0.0
  0
LINE
  5
2BC
330
1E
100
AcDbEntity
  8
LAY0_0
  6
Continuous
 62
     0
100
AcDbLine
 10
80679.8706054688
 20
49318.1335449219
 30
0.0
 11
80679.8706054688
 21
49746.7041015625
 31
0.0
  0
LINE
  5
2BD
330
1E
100
AcDbEntity
  8
LAY0_0
  6
DASHED2
 62
     0
100
AcDbLine
 10
55800.6042480469
 20
48889.5690917969
 30
0.0
 11
55800.6042480469
 21
45937.1826171875
 31
0.0
  0
LINE
  5
2BE
330
1E
100
AcDbEntity
  8
LAY0_0
  6
Continuous
 62
     0
100
AcDbLine
 10
85685.6262207031
 20
53032.421875
 30
0.0
 11
85685.6262207031
 21
51794.3237304688
 31
0.0
  0
LINE
  5
2BF
330
1E
100
AcDbEntity
  8
LAY0_0
  6
Continuous
 62
     0
100
AcDbLine
 10
80679.8706054688
 20
49318.1335449219
 30
0.0
 11
78612.6586914063
 21
48651.4770507813
 31
0.0
  0
LINE
  5
2C0
330
1E
100
AcDbEntity
  8
LAY0_0
  6
Continuous
 62
     0
100
AcDbLine
 10
85685.6262207031
 20
52889.5629882813
 30
0.0
 11
86099.2614746094
 21
52889.5629882813
 31
0.0
  0
LINE
  5
2C1
330
1E
100
AcDbEntity
  8
LAY0_0
  6
Continuous
 62
     0
100
AcDbLine
 10
90649.22485351561
 20
53080.0354003906
 30
0.0
 11
85737.3352050781
 21
53080.0354003906
 31
0.0
  0
LINE
  5
2C2
330
1E
100
AcDbEntity
  8
LAY0_0
  6
Continuous
 62
     0
100
AcDbLine
 10
45925.1037597656
 20
48889.5690917969
 30
0.0
 11
45925.1037597656
 21
47080.0415039063
 31
0.0
  0
LINE
  5
2C4
330
1E
100
AcDbEntity
  8
LAY0_0
  6
Continuous
 62
     0
100
AcDbLine
 10
52103.1860351563
 20
57313.2080078125
 30
0.0
 11
52280.5908203125
 21
58083.2824707031
 31
0.0
  0
LINE
  5
2C5
330
1E
100
AcDbEntity
  8
LAY0_0
  6
Continuous
 62
     0
100
AcDbLine
 10
77853.2958984375
 20
54103.515625
 30
0.0
 11
82709.912109375
 21
53701.4526367188
 31
0.0
  0
LINE
  5
2C6
330
1E
100
AcDbEntity
  8
LAY0_0
  6
Continuous
 62
     0
100
AcDbLine
 10
91424.79248046881
 20
48002.3559570313
 30
0.0
 11
87699.2919921875
 21
45937.1826171875
 31
0.0
  0
LINE
  5
2C7
330
1E
100
AcDbEntity
  8
LAY0_0
  6
Continuous
 62
     0
100
AcDbLine
 10
83048.7182617188
 20
49603.8513183594
 30
0.0
 11
83048.7182617188
 21
49318.1335449219
 31
0.0
  0
LINE
  5
2C8
330
1E
100
AcDbEntity
  8
LAY0_0
  6
Continuous
 62
     0
100
AcDbLine
 10
45821.6979980469
 20
48984.8022460938
 30
0.0
 11
45873.4069824219
 21
49127.6611328125
 31
0.0
  0
LINE
  5
2C9
330
1E
100
AcDbEntity
  8
LAY0_0
  6
Continuous
 62
     0
100
AcDbLine
 10
50463.04016113281
 20
59413.3728027344
 30
0.0
 11
50423.3764648438
 21
59413.3728027344
 31
0.0
  0
LINE
  5
2CA
330
1E
100
AcDbEntity
  8
LAY0_0
  6
Continuous
 62
     0
100
AcDbLine
 10
50368.310546875
 20
56055.9936523438
 30
0.0
 11
50423.3764648438
 21
56117.7368164063
 31
0.0
  0
LINE
  5
2CC
330
1E
100
AcDbEntity
  8
LAY0_0
  6
Continuous
 62
     0
100
AcDbLine
 10
50023.4436035156
 20
59243.8903808594
 30
0.0
 11
49854.6264648438
 21
59365.7653808594
 31
0.0
  0
LINE
  5
2CD
330
1E
100
AcDbEntity
  8
LAY0_0
  6
Continuous
 62
     0
100
AcDbLine
 10
45414.5446777344
 20
47556.2316894531
 30
0.0
 11
45252.9541015625
 21
47662.5061035156
 31
0.0
  0
LINE
  5
2CE
330
1E
100
AcDbEntity
  8
LAY0_0
  6
Continuous
 62
     0
100
AcDbLine
 10
56067.919921875
 20
52503.8146972656
 30
0.0
 11
55588.8916015625
 21
52503.8146972656
 31
0.0
  0
LINE
  5
2CF
330
1E
100
AcDbEntity
  8
LAY0_0
  6
Continuous
 62
     0
100
AcDbLine
 10
45676.9287109375
 20
48646.7102050781
 30
0.0
 11
45252.9541015625
 21
47746.7041015625
 31
0.0
  0
LINE
  5
2D0
330
1E
100
AcDbEntity
  8
LAY0_0
  6
Continuous
 62
     0
100
AcDbLine
 10
50733.6029052734
 20
59603.857421875
 30
0.0
 11
50578.4851074219
 21
59651.46484375
 31
0.0
  0
LINE
  5
2D1
330
1E
100
AcDbEntity
  8
LAY0_0
  6
Continuous
 62
     0
100
AcDbLine
 10
52905.17578125
 20
54222.900390625
 30
0.0
 11
53040.6860351563
 21
54222.900390625
 31
0.0
  0
LINE
  5
2D2
330
1E
100
AcDbEntity
  8
LAY0_0
  6
Continuous
 62
     0
100
AcDbLine
 10
91269.677734375
 20
51080.0415039063
 30
0.0
 11
91269.677734375
 21
50699.0905761719
 31
0.0
  0
LINE
  5
2D4
330
1E
100
AcDbEntity
  8
LAY0_0
  6
Continuous
 62
     0
100
AcDbLine
 10
45976.8127441406
 20
49318.1335449219
 30
0.0
 11
46235.33020019531
 21
49318.1335449219
 31
0.0
  0
LINE
  5
2D5
330
1E
100
AcDbEntity
  8
LAY0_0
  6
Continuous
 62
     0
100
AcDbLine
 10
88756.84668124425
 20
54032.4279785156
 30
0.0
 11
89656.51245117189
 21
55413.3728027344
 31
0.0
  0
LINE
  5
2D6
330
1E
100
AcDbEntity
  8
LAY0_0
  6
Continuous
 62
     0
100
AcDbLine
 10
45718.2922363281
 20
48699.0905761719
 30
0.0
 11
45676.9287109375
 21
48646.7102050781
 31
0.0
  0
LINE
  5
2D7
330
1E
100
AcDbEntity
  8
LAY0_0
  6
CENTER
 62
     0
 48
1000.0
100
AcDbLine
 10
76585.693359375
 20
48651.4770507813
 30
0.0
 11
76585.693359375
 21
45937.1826171875
 31
0.0
  0
LINE
  5
2D8
330
1E
100
AcDbEntity
  8
LAY0_0
  6
CENTER
 62
     0
 48
100.0
100
AcDbLine
 10
81187.353515625
 20
47080.0415039063
 30
0.0
 11
85840.7348632813
 21
47080.0415039063
 31
0.0
  0
LINE
  5
2D9
330
1E
100
AcDbEntity
  8
LAY0_0
  6
Continuous
 62
     0
100
AcDbLine
 10
49182.4768066406
 20
57127.6611328125
 30
0.0
 11
49541.845703125
 21
56794.3359375
 31
0.0
  0
LINE
  5
2DA
330
1E
100
AcDbEntity
  8
LAY0_0
  6
Continuous
 62
     0
100
AcDbLine
 10
51767.6879882813
 20
60365.7592773438
 30
0.0
 11
51767.6879882813
 21
60318.1396484375
 31
0.0
  0
LINE
  5
2DB
330
1E
100
AcDbEntity
  8
LAY0_0
  6
Continuous
 62
     0
100
AcDbLine
 10
51922.7905273438
 20
60556.2316894531
 30
0.0
 11
51767.6879882813
 21
60365.7592773438
 31
0.0
  0
LINE
  5
2DC
330
1E
100
AcDbEntity
  8
LAY0_0
  6
Continuous
 62
     0
100
AcDbLine
 10
51767.6879882813
 20
60318.1396484375
 30
0.0
 11
53788.7084960938
 21
59746.2585449219
 31
0.0
  0
LINE
  5
2DD
330
1E
100
AcDbEntity
  8
LAY0_0
  6
Continuous
 62
     0
100
AcDbLine
 10
53791.6442871094
 20
59756.1767578125
 30
0.0
 11
82490.82117005579
 21
51967.37443323795
 31
0.0
  0
LINE
  5
2DE
330
1E
100
AcDbEntity
  8
LAY0_0
  6
Continuous
 62
     0
100
AcDbLine
 10
77051.0192871094
 20
54196.630859375
 30
0.0
 11
76624.0234375
 21
52878.02734375
 31
0.0
  0
LINE
  5
2DF
330
1E
100
AcDbEntity
  8
LAY0_0
  6
Continuous
 62
     0
100
AcDbLine
 10
82479.9682617188
 20
52651.4709472656
 30
0.0
 11
82376.5625
 21
52318.1396484375
 31
0.0
  0
LINE
  5
2E0
330
1E
100
AcDbEntity
  8
LAY0_0
  6
Continuous
 62
     0
100
AcDbLine
 10
82576.7883300781
 20
51869.1528320313
 30
0.0
 11
82430.4382324219
 21
52318.45703125
 31
0.0
  0
LINE
  5
2E1
330
1E
100
AcDbEntity
  8
LAY0_0
  6
Continuous
 62
     0
100
AcDbLine
 10
79419.9462890625
 20
53329.7119140625
 30
0.0
 11
79700.4028320313
 21
52206.7687988281
 31
0.0
  0
LINE
  5
2E2
330
1E
100
AcDbEntity
  8
LAY0_0
  6
Continuous
 62
     0
100
AcDbLine
 10
51664.2761230469
 20
59746.7102050781
 30
0.0
 11
51664.2761230469
 21
58323.2177734375
 31
0.0
  0
LINE
  5
2E3
330
1E
100
AcDbEntity
  8
LAY0_0
  6
Continuous
 62
     0
100
AcDbLine
 10
51565.0024414063
 20
58084.1186523438
 30
0.0
 11
51637.3901367188
 21
58318.1457519531
 31
0.0
  0
LINE
  5
2E4
330
1E
100
AcDbEntity
  8
LAY0_0
  6
Continuous
 62
     0
100
AcDbLine
 10
74317.08984375
 20
54948.2543945313
 30
0.0
 11
73882.4951171875
 21
53595.6420898438
 31
0.0
  0
LINE
  5
2E5
330
1E
100
AcDbEntity
  8
LAY0_0
  6
Continuous
 62
     0
100
AcDbLine
 10
52181.3171386719
 20
59746.7102050781
 30
0.0
 11
52181.3171386719
 21
58323.1567382813
 31
0.0
  0
LINE
  5
2E6
330
1E
100
AcDbEntity
  8
LAY0_0
  6
Continuous
 62
     0
100
AcDbLine
 10
90700.93994140631
 20
51127.6550292969
 30
0.0
 11
90700.93994140631
 21
53032.421875
 31
0.0
  0
LINE
  5
2E7
330
1E
100
AcDbEntity
  8
LAY0_0
  6
Continuous
 62
     0
100
AcDbLine
 10
51354.052734375
 20
60746.7102050781
 30
0.0
 11
50268.25866699219
 21
60746.7102050781
 31
0.0
  0
LINE
  5
2E8
330
1E
100
AcDbEntity
  8
LAY0_0
  6
Continuous
 62
     0
100
AcDbLine
 10
52181.3171386719
 20
59746.7102050781
 30
0.0
 11
51974.5056152344
 21
59556.2316894531
 31
0.0
  0
LINE
  5
2E9
330
1E
100
AcDbEntity
  8
LAY0_0
  6
Continuous
 62
     0
100
AcDbLine
 10
52280.5908203125
 20
58083.2824707031
 30
0.0
 11
52207.8430175781
 21
58318.2067871094
 31
0.0
  0
LINE
  5
2EA
330
1E
100
AcDbEntity
  8
LAY0_0
  6
Continuous
 62
     0
100
AcDbLine
 10
60092.0532226563
 20
52032.421875
 30
0.0
 11
60092.0532226563
 21
51127.6550292969
 31
0.0
  0
LINE
  5
2EB
330
1E
100
AcDbEntity
  8
LAY0_0
  6
Continuous
 62
     0
100
AcDbLine
 10
45821.6979980469
 20
48508.6181640625
 30
0.0
 11
45925.1037597656
 21
48413.37890625
 31
0.0
  0
LINE
  5
2EC
330
1E
100
AcDbEntity
  8
LAY0_0
  6
Continuous
 62
     0
100
AcDbLine
 10
59781.8298339844
 20
51984.8022460938
 30
0.0
 11
60092.0532226563
 21
51984.8022460938
 31
0.0
  0
LINE
  5
2ED
330
1E
100
AcDbEntity
  8
LAY0_0
  6
Continuous
 62
     0
100
AcDbLine
 10
81894.9768066406
 20
57192.9504394531
 30
0.0
 11
90160.0830078125
 21
56440.8115625382
 31
0.0
  0
LINE
  5
2EE
330
1E
100
AcDbEntity
  8
LAY0_0
  6
Continuous
 62
     0
100
AcDbLine
 10
85685.6262207031
 20
52413.3666992188
 30
0.0
 11
86099.2614746094
 21
52413.3666992188
 31
0.0
  0
LINE
  5
2EF
330
1E
100
AcDbEntity
  8
LAY0_0
  6
Continuous
 62
     0
100
AcDbLine
 10
82799.4750976563
 20
53768.5791015625
 30
0.0
 11
83514.0502929688
 21
53705.1086425781
 31
0.0
  0
LINE
  5
2F0
330
1E
100
AcDbEntity
  8
LAY0_0
  6
Continuous
 62
     0
100
AcDbLine
 10
51565.0024414063
 20
58084.1186523438
 30
0.0
 11
51742.3950195313
 21
57313.2080078125
 31
0.0
  0
LINE
  5
2F1
330
1E
100
AcDbEntity
  8
LAY0_0
  6
Continuous
 62
     0
100
AcDbLine
 10
51871.09375
 20
57222.900390625
 30
0.0
 11
51819.384765625
 21
57032.4340820313
 31
0.0
  0
LINE
  5
2F2
330
1E
100
AcDbEntity
  8
LAY0_0
  6
Continuous
 62
     0
100
AcDbLine
 10
59213.0798339844
 20
51484.8083496094
 30
0.0
 11
61879.60205078132
 21
51484.8083496094
 31
0.0
  0
LINE
  5
2F3
330
1E
100
AcDbEntity
  8
LAY0_0
  6
Continuous
 62
     0
100
AcDbLine
 10
81807.8125
 20
51794.3237304688
 30
0.0
 11
89873.6572265625
 21
51794.3237304688
 31
0.0
  0
LINE
  5
2F4
330
1E
100
AcDbEntity
  8
LAY0_0
  6
Continuous
 62
     0
100
AcDbLine
 10
76840.0512695313
 20
54254.5837402344
 30
0.0
 11
76412.2253417969
 21
52933.4716796875
 31
0.0
  0
LINE
  5
2F5
330
1E
100
AcDbEntity
  8
LAY0_0
  6
Continuous
 62
     0
100
AcDbLine
 10
80460.400390625
 20
52919.04296875
 30
0.0
 11
80664.4409179688
 21
52018.1091308594
 31
0.0
  0
LINE
  5
2F6
330
1E
100
AcDbEntity
  8
LAY0_0
  6
Continuous
 62
     0
100
AcDbLine
 10
79700.4028320313
 20
52206.7687988281
 30
0.0
 11
80460.400390625
 21
52919.04296875
 31
0.0
  0
LINE
  5
2F7
330
1E
100
AcDbEntity
  8
LAY0_0
  6
Continuous
 62
     0
100
AcDbLine
 10
81807.8125
 20
51794.3237304688
 30
0.0
 11
81807.8125
 21
50937.1887207031
 31
0.0
  0
LINE
  5
2F8
330
1E
100
AcDbEntity
  8
LAY0_0
  6
Continuous
 62
     0
100
AcDbLine
 10
45443.6889648438
 20
47761.279296875
 30
0.0
 11
45443.6889648438
 21
47812.3168945313
 31
0.0
  0
LINE
  5
2F9
330
1E
100
AcDbEntity
  8
LAY0_0
  6
Continuous
 62
     0
100
AcDbLine
 10
51664.2761230469
 20
59746.7102050781
 30
0.0
 11
51705.6396484375
 21
59989.5629882813
 31
0.0
  0
LINE
  5
2FA
330
1E
100
AcDbEntity
  8
LAY0_0
  6
Continuous
 62
     0
100
AcDbLine
 10
45443.6889648438
 20
47761.279296875
 30
0.0
 11
45478.6376953125
 21
47739.4897460938
 31
0.0
  0
LINE
  5
2FB
330
1E
100
AcDbEntity
  8
LAY0_0
  6
Continuous
 62
     0
100
AcDbLine
 10
84444.72656249999
 20
50699.0905761719
 30
0.0
 11
87133.3374023438
 21
50699.0905761719
 31
0.0
  0
LINE
  5
2FC
330
1E
100
AcDbEntity
  8
LAY0_0
  6
Continuous
 62
     0
100
AcDbLine
 10
77671.4782714844
 20
54222.900390625
 30
0.0
 11
77774.8901367188
 21
54318.1396484375
 31
0.0
  0
LINE
  5
2FE
330
1E
100
AcDbEntity
  8
LAY0_0
  6
Continuous
 62
     0
100
AcDbLine
 10
90899.7802734375
 20
47116.6625976563
 30
0.0
 11
90390.70434570311
 21
47222.9064941406
 31
0.0
  0
LINE
  5
2FF
330
1E
100
AcDbEntity
  8
LAY0_0
  6
Continuous
 62
     0
100
AcDbLine
 10
89997.76578425248
 20
56222.900390625
 30
0.0
 11
88570.71083665175
 21
54032.4279785156
 31
0.0
  0
LINE
  5
300
330
1E
100
AcDbEntity
  8
LAY0_0
  6
Continuous
 62
     0
100
AcDbLine
 10
91114.56298828131
 20
47032.4157714844
 30
0.0
 11
91011.1572265625
 21
47032.4157714844
 31
0.0
  0
LINE
  5
302
330
1E
100
AcDbEntity
  8
LAY0_0
  6
Continuous
 62
     0
100
AcDbLine
 10
89356.6162109375
 20
56080.0415039063
 30
0.0
 11
89759.61644793843
 21
55857.35066036751
 31
0.0
  0
LINE
  5
304
330
1E
100
AcDbEntity
  8
LAY0_0
  6
Continuous
 62
     0
100
AcDbLine
 10
84579.95002720076
 20
50699.09057617191
 30
0.0
 11
84118.5974121094
 21
49318.1335449219
 31
0.0
  0
LINE
  5
305
330
1E
100
AcDbEntity
  8
LAY0_0
  6
Continuous
 62
     0
100
AcDbLine
 10
86998.11258129335
 20
50699.09057617191
 30
0.0
 11
87459.4848632813
 21
49318.1335449219
 31
0.0
  0
LINE
  5
306
330
1E
100
AcDbEntity
  8
LAY0_0
  6
Continuous
 62
     0
100
AcDbLine
 10
82430.4382324219
 20
52318.45703125
 30
0.0
 11
82534.7839355469
 21
52654.8278808594
 31
0.0
  0
LINE
  5
307
330
1E
100
AcDbEntity
  8
LAY0_0
  6
Continuous
 62
     0
100
AcDbLine
 10
90339.00146484381
 20
53413.37890625
 30
0.0
 11
90339.00146484382
 21
55413.37280273441
 31
0.0
  0
LINE
  5
308
330
1E
100
AcDbEntity
  8
LAY0_0
  6
Continuous
 62
     0
100
AcDbLine
 10
90390.70434570311
 20
47270.5200195313
 30
0.0
 11
90700.93994140631
 21
47413.3728027344
 31
0.0
  0
LINE
  5
309
330
1E
100
AcDbEntity
  8
LAY0_0
  6
Continuous
 62
     0
100
AcDbLine
 10
90390.70434570311
 20
47222.9064941406
 30
0.0
 11
90390.70434570311
 21
47270.5200195313
 31
0.0
  0
LINE
  5
30A
330
1E
100
AcDbEntity
  8
LAY0_0
  6
Continuous
 62
     0
100
AcDbLine
 10
87593.7744140625
 20
49699.3835449219
 30
0.0
 11
87860.2233886719
 21
49699.3835449219
 31
0.0
  0
LINE
  5
30B
330
1E
100
AcDbEntity
  8
LAY0_0
  6
Continuous
 62
     0
100
AcDbLine
 10
84651.5502929688
 20
50699.0905761719
 30
0.0
 11
85737.3352050781
 21
50699.0905761719
 31
0.0
  0
LINE
  5
30C
330
1E
100
AcDbEntity
  8
LAY0_0
  6
Continuous
 62
     0
100
AcDbLine
 10
53008.5815429688
 20
55222.8942871094
 30
0.0
 11
53008.5815429688
 21
57270.5200195313
 31
0.0
  0
LINE
  5
30D
330
1E
100
AcDbEntity
  8
LAY0_0
  6
Continuous
 62
     0
100
AcDbLine
 10
49541.845703125
 20
55542.7307128906
 30
0.0
 11
49541.845703125
 21
56794.3359375
 31
0.0
  0
LINE
  5
30E
330
1E
100
AcDbEntity
  8
LAY0_0
  6
Continuous
 62
     0
100
AcDbLine
 10
49596.1090087891
 20
53351.7395019531
 30
0.0
 11
49596.1090087891
 21
51841.9494628906
 31
0.0
  0
LINE
  5
30F
330
1E
100
AcDbEntity
  8
LAY0_0
  6
Continuous
 62
     0
100
AcDbLine
 10
53784.1430664063
 20
55222.8942871094
 30
0.0
 11
53784.1430664063
 21
55080.0415039063
 31
0.0
  0
LINE
  5
311
330
1E
100
AcDbEntity
  8
LAY0_0
  6
Continuous
 62
     0
100
AcDbLine
 10
77671.4782714844
 20
54222.900390625
 30
0.0
 11
77671.4782714844
 21
54175.2746582031
 31
0.0
  0
LINE
  5
312
330
1E
100
AcDbEntity
  8
LAY0_0
  6
Continuous
 62
     0
100
AcDbLine
 10
49541.845703125
 20
57460.9985351563
 30
0.0
 11
49541.845703125
 21
58646.2158203125
 31
0.0
  0
LINE
  5
314
330
1E
100
AcDbEntity
  8
LAY0_0
  6
Continuous
 62
     0
100
AcDbLine
 10
51767.6879882813
 20
60318.1396484375
 30
0.0
 11
51715.9729003906
 21
60270.5261230469
 31
0.0
  0
LINE
  5
315
330
1E
100
AcDbEntity
  8
LAY0_0
  6
DASHED2
 62
     0
 48
100.0
100
AcDbLine
 10
85789.0319824219
 20
50651.46484375
 30
0.0
 11
85789.0319824219
 21
49318.1335449219
 31
0.0
  0
LINE
  5
317
330
1E
100
AcDbEntity
  8
LAY0_0
  6
Continuous
 62
     0
100
AcDbLine
 10
49541.845703125
 20
57460.9985351563
 30
0.0
 11
49182.4768066406
 21
57127.6611328125
 31
0.0
  0
LINE
  5
318
330
1E
100
AcDbEntity
  8
LAY0_0
  6
Continuous
 62
     0
100
AcDbLine
 10
53008.5815429688
 20
55270.5200195313
 30
0.0
 11
53732.4340820313
 21
55270.5200195313
 31
0.0
  0
LINE
  5
319
330
1E
100
AcDbEntity
  8
LAY0_0
  6
Continuous
 62
     0
100
AcDbLine
 10
59407.7514648438
 20
50126.3793945313
 30
0.0
 11
59407.7514648438
 21
50889.5629882813
 31
0.0
  0
LINE
  5
31A
330
1E
100
AcDbEntity
  8
LAY0_0
  6
Continuous
 62
     0
100
AcDbLine
 10
53939.2944335938
 20
55413.3728027344
 30
0.0
 11
54074.3896484375
 21
55080.0415039063
 31
0.0
  0
LINE
  5
31B
330
1E
100
AcDbEntity
  8
LAY0_0
  6
CENTER
 62
     0
 48
100.0
100
AcDbLine
 10
58696.0388183594
 20
46841.943359375
 30
0.0
 11
63246.0021972656
 21
46841.943359375
 31
0.0
  0
LINE
  5
31C
330
1E
100
AcDbEntity
  8
LAY0_0
  6
Continuous
 62
     0
100
AcDbLine
 10
53629.1259765625
 20
55413.3728027344
 30
0.0
 11
53563.7634277344
 21
55270.5200195313
 31
0.0
  0
LINE
  5
31D
330
1E
100
AcDbEntity
  8
LAY0_0
  6
Continuous
 62
     0
100
AcDbLine
 10
63012.5793457031
 20
58035.9497070313
 30
0.0
 11
62565.1611328125
 21
56627.0385742188
 31
0.0
  0
LINE
  5
31E
330
1E
100
AcDbEntity
  8
LAY0_0
  6
Continuous
 62
     0
100
AcDbLine
 10
53629.1259765625
 20
55777.0141601563
 30
0.0
 11
53629.1259765625
 21
55413.3728027344
 31
0.0
  0
LINE
  5
31F
330
1E
100
AcDbEntity
  8
LAY0_0
  6
Continuous
 62
     0
100
AcDbLine
 10
89873.6572265625
 20
51794.3237304688
 30
0.0
 11
89873.65722656251
 21
51067.7734375
 31
0.0
  0
LINE
  5
320
330
1E
100
AcDbEntity
  8
LAY0_0
  6
CENTER
 62
     0
 48
100.0
100
AcDbLine
 10
58902.8564453125
 20
48889.5690917969
 30
0.0
 11
58902.8564453125
 21
47318.1396484375
 31
0.0
  0
LINE
  5
321
330
1E
100
AcDbEntity
  8
LAY0_0
  6
Continuous
 62
     0
100
AcDbLine
 10
53112.158203125
 20
55746.7102050781
 30
0.0
 11
54456.298828125
 21
55746.7102050781
 31
0.0
  0
LINE
  5
322
330
1E
100
AcDbEntity
  8
LAY0_0
  6
Continuous
 62
     0
100
AcDbLine
 10
53939.2944335938
 20
55746.7102050781
 30
0.0
 11
53990.9606933594
 21
55794.3298339844
 31
0.0
  0
LINE
  5
324
330
1E
100
AcDbEntity
  8
LAY0_0
  6
Continuous
 62
     0
100
AcDbLine
 10
88528.33862304689
 20
52079.0832519531
 30
0.0
 11
89666.09497070311
 21
52079.0832519531
 31
0.0
  0
LINE
  5
325
330
1E
100
AcDbEntity
  8
LAY0_0
  6
Continuous
 62
     0
100
AcDbLine
 10
58696.0388183594
 20
50889.5629882813
 30
0.0
 11
58696.0388183594
 21
49689.0686035156
 31
0.0
  0
LINE
  5
326
330
1E
100
AcDbEntity
  8
LAY0_0
  6
Continuous
 62
     0
100
AcDbLine
 10
51273.6083984375
 20
60550.048828125
 30
0.0
 11
51405.7556152344
 21
60651.4709472656
 31
0.0
  0
LINE
  5
327
330
1E
100
AcDbEntity
  8
LAY0_0
  6
Continuous
 62
     0
100
AcDbLine
 10
85685.6262207031
 20
52175.2807617188
 30
0.0
 11
86099.2614746094
 21
52175.2807617188
 31
0.0
  0
LINE
  5
328
330
1E
100
AcDbEntity
  8
LAY0_0
  6
Continuous
 62
     0
100
AcDbLine
 10
85685.6262207031
 20
51937.1826171875
 30
0.0
 11
86099.2614746094
 21
51937.1826171875
 31
0.0
  0
LINE
  5
329
330
1E
100
AcDbEntity
  8
LAY0_0
  6
Continuous
 62
     0
100
AcDbLine
 10
45478.6376953125
 20
47739.4897460938
 30
0.0
 11
45925.1037597656
 21
47693.798828125
 31
0.0
  0
LINE
  5
32B
330
1E
100
AcDbEntity
  8
LAY0_0
  6
Continuous
 62
     0
100
AcDbLine
 10
53209.8388671875
 20
56333.7951660156
 30
0.0
 11
53209.8388671875
 21
56258.4167480469
 31
0.0
  0
LINE
  5
32C
330
1E
100
AcDbEntity
  8
LAY0_0
  6
Continuous
 62
     0
100
AcDbLine
 10
91269.677734375
 20
47508.6181640625
 30
0.0
 11
91217.97485351561
 21
47127.6672363281
 31
0.0
  0
LINE
  5
32E
330
1E
100
AcDbEntity
  8
LAY0_0
  6
Continuous
 62
     0
100
AcDbLine
 10
53732.4340820313
 20
55270.5200195313
 30
0.0
 11
53784.1430664063
 21
55222.8942871094
 31
0.0
  0
LINE
  5
32F
330
1E
100
AcDbEntity
  8
LAY0_0
  6
Continuous
 62
     0
100
AcDbLine
 10
89470.3857421875
 20
55413.3728027344
 30
0.0
 11
90700.93994140631
 21
55413.3728027344
 31
0.0
  0
LINE
  5
330
330
1E
100
AcDbEntity
  8
LAY0_0
  6
Continuous
 62
     0
100
AcDbLine
 10
47476.2329101563
 20
50889.5629882813
 30
0.0
 11
60453.9794921875
 21
50889.5629882813
 31
0.0
  0
LINE
  5
331
330
1E
100
AcDbEntity
  8
LAY0_0
  6
Continuous
 62
     0
100
AcDbLine
 10
51715.9729003906
 20
60270.5261230469
 30
0.0
 11
51255.6640625
 21
60536.2854003906
 31
0.0
  0
LINE
  5
332
330
1E
100
AcDbEntity
  8
LAY0_0
  6
Continuous
 62
     0
100
AcDbLine
 10
81807.8125
 20
51431.0546875
 30
0.0
 11
89873.6572265625
 21
51431.0546875
 31
0.0
  0
LINE
  5
333
330
1E
100
AcDbEntity
  8
LAY0_0
  6
Continuous
 62
     0
100
AcDbLine
 10
49901.2390136719
 20
57127.6611328125
 30
0.0
 11
49541.845703125
 21
56794.3359375
 31
0.0
  0
LINE
  5
334
330
1E
100
AcDbEntity
  8
LAY0_0
  6
Continuous
 62
     0
100
AcDbLine
 10
53008.5815429688
 20
56271.9543457031
 30
0.0
 11
52878.4301757813
 21
56271.9543457031
 31
0.0
  0
LINE
  5
336
330
1E
100
AcDbEntity
  8
LAY0_0
  6
Continuous
 62
     0
100
AcDbLine
 10
52878.4301757813
 20
55360.8947753906
 30
0.0
 11
53008.5815429688
 21
55360.8947753906
 31
0.0
  0
LINE
  5
337
330
1E
100
AcDbEntity
  8
LAY0_0
  6
Continuous
 62
     0
100
AcDbLine
 10
90959.45434570311
 20
53413.37890625
 30
0.0
 11
91217.97485351561
 21
53318.1396484375
 31
0.0
  0
LINE
  5
338
330
1E
100
AcDbEntity
  8
LAY0_0
  6
Continuous
 62
     0
100
AcDbLine
 10
51715.9729003906
 20
59651.46484375
 30
0.0
 11
51664.2761230469
 21
59746.7102050781
 31
0.0
  0
LINE
  5
339
330
1E
100
AcDbEntity
  8
LAY0_0
  6
Continuous
 62
     0
100
AcDbLine
 10
51742.3950195313
 20
57313.2080078125
 30
0.0
 11
51873.8159179688
 21
57277.2399902344
 31
0.0
  0
LINE
  5
33A
330
1E
100
AcDbEntity
  8
LAY0_0
  6
Continuous
 62
     0
100
AcDbLine
 10
89821.96655273439
 20
53770.5200195313
 30
0.0
 11
90907.75146484381
 21
53770.5200195313
 31
0.0
  0
LINE
  5
33B
330
1E
100
AcDbEntity
  8
LAY0_0
  6
Continuous
 62
     0
100
AcDbLine
 10
89819.05517578131
 20
54127.6672363281
 30
0.0
 11
89819.05517578131
 21
53413.37890625
 31
0.0
  0
LINE
  5
33C
330
1E
100
AcDbEntity
  8
LAY0_0
  6
Continuous
 62
     0
100
AcDbLine
 10
51819.384765625
 20
60127.6550292969
 30
0.0
 11
51705.6396484375
 21
59989.5629882813
 31
0.0
  0
LINE
  5
33D
330
1E
100
AcDbEntity
  8
LAY0_0
  6
Continuous
 62
     0
100
AcDbLine
 10
51405.7556152344
 20
60699.0966796875
 30
0.0
 11
51354.052734375
 21
60746.7102050781
 31
0.0
  0
LINE
  5
341
330
1E
100
AcDbEntity
  8
LAY0_0
  6
Continuous
 62
     0
100
AcDbLine
 10
77257.8491210938
 20
52712.1215820313
 30
0.0
 11
78293.4326171875
 21
53774.3469238281
 31
0.0
  0
LINE
  5
342
330
1E
100
AcDbEntity
  8
LAY0_0
  6
Continuous
 62
     0
100
AcDbLine
 10
51637.3901367188
 20
58318.1457519531
 30
0.0
 11
51922.7905273438
 21
58372.0397949219
 31
0.0
  0
LINE
  5
343
330
1E
100
AcDbEntity
  8
LAY0_0
  6
Continuous
 62
     0
100
AcDbLine
 10
59653.60570827143
 20
54661.94555584534
 30
0.0
 11
58880.2429199219
 21
53351.7395019531
 31
0.0
  0
LINE
  5
344
330
1E
100
AcDbEntity
  8
LAY0_0
  6
Continuous
 62
     0
100
AcDbLine
 10
90907.75146484381
 20
53413.37890625
 30
0.0
 11
86150.9643554688
 21
53413.37890625
 31
0.0
  0
LINE
  5
345
330
1E
100
AcDbEntity
  8
LAY0_0
  6
Continuous
 62
     0
100
AcDbLine
 10
86150.9643554688
 20
53770.5200195313
 30
0.0
 11
88374.2431640625
 21
53770.5200195313
 31
0.0
  0
LINE
  5
346
330
1E
100
AcDbEntity
  8
LAY0_0
  6
Continuous
 62
     0
100
AcDbLine
 10
88964.27001953131
 20
55477.8015136719
 30
0.0
 11
89359.55810546881
 21
55259.3688964844
 31
0.0
  0
LINE
  5
348
330
1E
100
AcDbEntity
  8
LAY0_0
  6
Continuous
 62
     0
100
AcDbLine
 10
87960.6079101563
 20
51067.7734375
 30
0.0
 11
87960.6079101563
 21
51794.3237304688
 31
0.0
  0
LINE
  5
349
330
1E
100
AcDbEntity
  8
LAY0_0
  6
Continuous
 62
     0
100
AcDbLine
 10
50268.25866699219
 20
60746.7102050781
 30
0.0
 11
50475.0793457031
 21
59937.1887207031
 31
0.0
  0
LINE
  5
34A
330
1E
100
AcDbEntity
  8
LAY0_0
  6
Continuous
 62
     0
100
AcDbLine
 10
89819.05517578131
 20
54127.6672363281
 30
0.0
 11
90907.75146484381
 21
54127.6672363281
 31
0.0
  0
LINE
  5
34B
330
1E
100
AcDbEntity
  8
LAY0_0
  6
Continuous
 62
     0
100
AcDbLine
 10
86099.2614746094
 20
53413.37890625
 30
0.0
 11
84910.05859375
 21
52996.13637498034
 31
0.0
  0
LINE
  5
34C
330
1E
100
AcDbEntity
  8
LAY0_0
  6
Continuous
 62
     0
100
AcDbLine
 10
51095.5261230469
 20
60413.3728027344
 30
0.0
 11
51273.6083984375
 21
60550.048828125
 31
0.0
  0
LINE
  5
34D
330
1E
100
AcDbEntity
  8
LAY0_0
  6
Continuous
 62
     0
100
AcDbLine
 10
49901.2390136719
 20
57127.6611328125
 30
0.0
 11
49541.845703125
 21
57460.9985351563
 31
0.0
  0
LINE
  5
34E
330
1E
100
AcDbEntity
  8
LAY0_0
  6
Continuous
 62
     0
100
AcDbLine
 10
51715.9729003906
 20
60270.5261230469
 30
0.0
 11
51715.9729003906
 21
60222.8942871094
 31
0.0
  0
LINE
  5
350
330
1E
100
AcDbEntity
  8
LAY0_0
  6
Continuous
 62
     0
100
AcDbLine
 10
51922.7905273438
 20
58372.0397949219
 30
0.0
 11
52207.8430175781
 21
58318.2067871094
 31
0.0
  0
LINE
  5
351
330
1E
100
AcDbEntity
  8
LAY0_0
  6
Continuous
 62
     0
100
AcDbLine
 10
85789.0319824219
 20
50937.1887207031
 30
0.0
 11
85789.0319824219
 21
51794.3237304688
 31
0.0
  0
LINE
  5
352
330
1E
100
AcDbEntity
  8
LAY0_0
  6
Continuous
 62
     0
100
AcDbLine
 10
51138.3178710938
 20
60446.2158203125
 30
0.0
 11
50268.25866699219
 21
60746.7102050781
 31
0.0
  0
LINE
  5
353
330
1E
100
AcDbEntity
  8
LAY0_0
  6
Continuous
 62
     0
100
AcDbLine
 10
84031.0913085938
 20
53746.7163085938
 30
0.0
 11
84031.0913085938
 21
52883.2153320313
 31
0.0
  0
LINE
  5
354
330
1E
100
AcDbEntity
  8
LAY0_0
  6
Continuous
 62
     0
100
AcDbLine
 10
89749.5788574219
 20
55841.943359375
 30
0.0
 11
90700.93994140631
 21
55841.943359375
 31
0.0
  0
LINE
  5
355
330
1E
100
AcDbEntity
  8
LAY0_0
  6
Continuous
 62
     0
100
AcDbLine
 10
77774.8901367188
 20
54318.1396484375
 30
0.0
 11
82726.1779785156
 21
53848.4558105469
 31
0.0
  0
LINE
  5
356
330
1E
100
AcDbEntity
  8
LAY0_0
  6
Continuous
 62
     0
100
AcDbLine
 10
85065.185546875
 20
53746.7163085938
 30
0.0
 11
85065.18554687501
 21
53050.56406232605
 31
0.0
  0
LINE
  5
357
330
1E
100
AcDbEntity
  8
LAY0_0
  6
Continuous
 62
     0
100
AcDbLine
 10
87858.5021972656
 20
54127.6672363281
 30
0.0
 11
87858.5021972656
 21
53413.37890625
 31
0.0
  0
LINE
  5
359
330
1E
100
AcDbEntity
  8
LAY0_0
  6
Continuous
 62
     0
100
AcDbLine
 10
86719.7021484375
 20
51067.7734375
 30
0.0
 11
86719.7021484375
 21
51794.3237304688
 31
0.0
  0
LINE
  5
35A
330
1E
100
AcDbEntity
  8
LAY0_0
  6
Continuous
 62
     0
100
AcDbLine
 10
80679.8706054688
 20
49318.1335449219
 30
0.0
 11
91373.08349609381
 21
49318.1335449219
 31
0.0
  0
LINE
  5
35C
330
1E
100
AcDbEntity
  8
LAY0_0
  6
Continuous
 62
     0
100
AcDbLine
 10
91217.97485351561
 20
47127.6672363281
 30
0.0
 11
91114.56298828131
 21
47032.4157714844
 31
0.0
  0
LINE
  5
35D
330
1E
100
AcDbEntity
  8
LAY0_0
  6
Continuous
 62
     0
100
AcDbLine
 10
50423.3764648438
 20
54651.46484375
 30
0.0
 11
50423.3764648438
 21
59413.3728027344
 31
0.0
  0
LINE
  5
35E
330
1E
100
AcDbEntity
  8
LAY0_0
  6
Continuous
 62
     0
100
AcDbLine
 10
87032.1838378906
 20
54127.6672363281
 30
0.0
 11
87032.1838378906
 21
53413.37890625
 31
0.0
  0
LINE
  5
360
330
1E
100
AcDbEntity
  8
LAY0_0
  6
Continuous
 62
     0
100
AcDbLine
 10
85013.47763165463
 20
53032.42187500001
 30
0.0
 11
85685.6262207031
 21
53032.421875
 31
0.0
  0
LINE
  5
361
330
1E
100
AcDbEntity
  8
LAY0_0
  6
Continuous
 62
     0
100
AcDbLine
 10
91011.1572265625
 20
47032.4157714844
 30
0.0
 11
90899.7802734375
 21
47116.6625976563
 31
0.0
  0
LINE
  5
362
330
1E
100
AcDbEntity
  8
LAY0_0
  6
Continuous
 62
     0
100
AcDbLine
 10
90132.18994140631
 20
55413.3728027344
 30
0.0
 11
90132.18994140631
 21
55841.943359375
 31
0.0
  0
LINE
  5
364
330
1E
100
AcDbEntity
  8
LAY0_0
  6
Continuous
 62
     0
100
AcDbLine
 10
90700.93994140631
 20
55413.3728027344
 30
0.0
 11
90700.93994140631
 21
56222.900390625
 31
0.0
  0
LINE
  5
365
330
1E
100
AcDbEntity
  8
LAY0_0
  6
Continuous
 62
     0
100
AcDbLine
 10
51922.7905273438
 20
60651.4709472656
 30
0.0
 11
51819.384765625
 21
60746.7102050781
 31
0.0
  0
LINE
  5
366
330
1E
100
AcDbEntity
  8
LAY0_0
  6
Continuous
 62
     0
100
AcDbLine
 10
83203.8208007813
 20
51794.3237304688
 30
0.0
 11
83203.8208007813
 21
51067.7734375
 31
0.0
  0
LINE
  5
367
330
1E
100
AcDbEntity
  8
LAY0_0
  6
Continuous
 62
     0
100
AcDbLine
 10
82635.0708007813
 20
51794.3237304688
 30
0.0
 11
82635.0708007813
 21
51067.7734375
 31
0.0
  0
LINE
  5
368
330
1E
100
AcDbEntity
  8
LAY0_0
  6
Continuous
 62
     0
100
AcDbLine
 10
84961.767578125
 20
51067.7734375
 30
0.0
 11
84961.767578125
 21
51794.3237304688
 31
0.0
  0
LINE
  5
36A
330
1E
100
AcDbEntity
  8
LAY0_0
  6
Continuous
 62
     0
100
AcDbLine
 10
91217.97485351561
 20
51127.6550292969
 30
0.0
 11
91217.97485351561
 21
53318.1396484375
 31
0.0
  0
LINE
  5
36B
330
1E
100
AcDbEntity
  8
LAY0_0
  6
Continuous
 62
     0
100
AcDbLine
 10
51715.9729003906
 20
59651.46484375
 30
0.0
 11
51772.8515625
 21
59618.1396484375
 31
0.0
  0
LINE
  5
36C
330
1E
100
AcDbEntity
  8
LAY0_0
  6
Continuous
 62
     0
100
AcDbLine
 10
81807.8125
 20
51067.7734375
 30
0.0
 11
89873.6572265625
 21
51067.7734375
 31
0.0
  0
LINE
  5
36D
330
1E
100
AcDbEntity
  8
LAY0_0
  6
Continuous
 62
     0
100
AcDbLine
 10
85065.185546875
 20
53349.8718261719
 30
0.0
 11
85065.185546875
 21
53361.81640625
 31
0.0
  0
LINE
  5
36E
330
1E
100
AcDbEntity
  8
LAY0_0
  6
Continuous
 62
     0
100
AcDbLine
 10
60453.9794921875
 20
51127.6550292969
 30
0.0
 11
60453.9794921875
 21
51841.9494628906
 31
0.0
  0
LINE
  5
36F
330
1E
100
AcDbEntity
  8
LAY0_0
  6
Continuous
 62
     0
100
AcDbLine
 10
51873.8159179688
 20
57277.2399902344
 30
0.0
 11
51922.7905273438
 21
57277.2399902344
 31
0.0
  0
LINE
  5
370
330
1E
100
AcDbEntity
  8
LAY0_0
  6
Continuous
 62
     0
100
AcDbLine
 10
89097.216796875
 20
52079.0832519531
 30
0.0
 11
89097.216796875
 21
52889.84375
 31
0.0
  0
LINE
  5
371
330
1E
100
AcDbEntity
  8
LAY0_0
  6
Continuous
 62
     0
100
AcDbLine
 10
60453.9794921875
 20
51889.5629882813
 30
0.0
 11
60453.9794921875
 21
51841.9494628906
 31
0.0
  0
LINE
  5
372
330
1E
100
AcDbEntity
  8
LAY0_0
  6
Continuous
 62
     0
100
AcDbLine
 10
51974.5056152344
 20
60651.4709472656
 30
0.0
 11
52474.09925301668
 21
60820.79787584725
 31
0.0
  0
LINE
  5
373
330
1E
100
AcDbEntity
  8
LAY0_0
  6
Continuous
 62
     0
100
AcDbLine
 10
51819.384765625
 20
60746.7102050781
 30
0.0
 11
51457.4584960938
 21
60699.0966796875
 31
0.0
  0
LINE
  5
374
330
1E
100
AcDbEntity
  8
LAY0_0
  6
Continuous
 62
     0
100
AcDbLine
 10
88528.33862304689
 20
52889.84375
 30
0.0
 11
88528.33862304689
 21
52079.0832519531
 31
0.0
  0
LINE
  5
375
330
1E
100
AcDbEntity
  8
LAY0_0
  6
Continuous
 62
     0
100
AcDbLine
 10
84910.05859375
 20
52889.5629882813
 30
0.0
 11
84910.05859375
 21
51794.3237304688
 31
0.0
  0
LINE
  5
376
330
1E
100
AcDbEntity
  8
LAY0_0
  6
Continuous
 62
     0
100
AcDbLine
 10
82479.9682617188
 20
52699.0966796875
 30
0.0
 11
82583.3618164063
 21
52794.3298339844
 31
0.0
  0
LINE
  5
377
330
1E
100
AcDbEntity
  8
LAY0_0
  6
Continuous
 62
     0
100
AcDbLine
 10
54663.1164550781
 20
54794.3237304688
 30
0.0
 11
54559.7106933594
 21
54270.5200195313
 31
0.0
  0
LINE
  5
378
330
1E
100
AcDbEntity
  8
LAY0_0
  6
Continuous
 62
     0
100
AcDbLine
 10
54663.1164550781
 20
54984.8083496094
 30
0.0
 11
53008.5815429688
 21
54984.8083496094
 31
0.0
  0
LINE
  5
379
330
1E
100
AcDbEntity
  8
LAY0_0
  6
Continuous
 62
     0
100
AcDbLine
 10
53215.3991699219
 20
54215.7775878906
 30
0.0
 11
53784.1430664063
 21
54215.7775878906
 31
0.0
  0
LINE
  5
37A
330
1E
100
AcDbEntity
  8
LAY0_0
  6
Continuous
 62
     0
100
AcDbLine
 10
54559.7106933594
 20
54066.0339355469
 30
0.0
 11
54559.7106933594
 21
53351.7395019531
 31
0.0
  0
LINE
  5
37B
330
1E
100
AcDbEntity
  8
LAY0_0
  6
Continuous
 62
     0
100
AcDbLine
 10
53577.3315429688
 20
54066.0339355469
 30
0.0
 11
53577.3315429688
 21
53351.7395019531
 31
0.0
  0
LINE
  5
37C
330
1E
100
AcDbEntity
  8
LAY0_0
  6
Continuous
 62
     0
100
AcDbLine
 10
53215.3991699219
 20
54882.4462890625
 30
0.0
 11
53784.1430664063
 21
54882.4462890625
 31
0.0
  0
LINE
  5
37D
330
1E
100
AcDbEntity
  8
LAY0_0
  6
Continuous
 62
     0
100
AcDbLine
 10
54663.1164550781
 20
54794.3237304688
 30
0.0
 11
54611.4074707031
 21
54841.943359375
 31
0.0
  0
LINE
  5
37E
330
1E
100
AcDbEntity
  8
LAY0_0
  6
Continuous
 62
     0
100
AcDbLine
 10
48200.0915527344
 20
53708.8745117188
 30
0.0
 11
51612.5671386719
 21
53708.8745117188
 31
0.0
  0
LINE
  5
37F
330
1E
100
AcDbEntity
  8
LAY0_0
  6
Continuous
 62
     0
100
AcDbLine
 10
53903.4301757813
 20
54215.7775878906
 30
0.0
 11
53903.4301757813
 21
54882.4462890625
 31
0.0
  0
LINE
  5
380
330
1E
100
AcDbEntity
  8
LAY0_0
  6
Continuous
 62
     0
100
AcDbLine
 10
84079.9072265625
 20
52749.70703125
 30
0.0
 11
84134.5031738281
 21
51794.3237304688
 31
0.0
  0
LINE
  5
381
330
1E
100
AcDbEntity
  8
LAY0_0
  6
Continuous
 62
     0
100
AcDbLine
 10
53008.5815429688
 20
54984.8083496094
 30
0.0
 11
53040.6860351563
 21
54884.6008300781
 31
0.0
  0
LINE
  5
382
330
1E
100
AcDbEntity
  8
LAY0_0
  6
Continuous
 62
     0
100
AcDbLine
 10
55542.08984375
 20
54066.0339355469
 30
0.0
 11
55542.08984375
 21
53351.7395019531
 31
0.0
  0
LINE
  5
383
330
1E
100
AcDbEntity
  8
LAY0_0
  6
Continuous
 62
     0
100
AcDbLine
 10
52691.2902832031
 20
50464.4836425781
 30
0.0
 11
52691.2902832031
 21
50178.5400390625
 31
0.0
  0
LINE
  5
384
330
1E
100
AcDbEntity
  8
LAY0_0
  6
Continuous
 62
     0
100
AcDbLine
 10
48200.0915527344
 20
51937.1826171875
 30
0.0
 11
48820.5383300781
 21
51937.1826171875
 31
0.0
  0
LINE
  5
385
330
1E
100
AcDbEntity
  8
LAY0_0
  6
Continuous
 62
     0
100
AcDbLine
 10
53215.3991699219
 20
54215.7775878906
 30
0.0
 11
53215.3991699219
 21
54882.4462890625
 31
0.0
  0
LINE
  5
386
330
1E
100
AcDbEntity
  8
LAY0_0
  6
Continuous
 62
     0
100
AcDbLine
 10
53040.6860351563
 20
54884.6008300781
 30
0.0
 11
53040.6860351563
 21
54066.0339355469
 31
0.0
  0
LINE
  5
387
330
1E
100
AcDbEntity
  8
LAY0_0
  6
Continuous
 62
     0
100
AcDbLine
 10
74316.89453125
 20
54947.6379394531
 30
0.0
 11
74389.3310546875
 21
53462.9760742188
 31
0.0
  0
LINE
  5
388
330
1E
100
AcDbEntity
  8
LAY0_0
  6
Continuous
 62
     0
100
AcDbLine
 10
72872.7661132813
 20
53859.9365234375
 30
0.0
 11
74010.05859375
 21
55031.9213867188
 31
0.0
  0
LINE
  5
389
330
1E
100
AcDbEntity
  8
LAY0_0
  6
Continuous
 62
     0
100
AcDbLine
 10
58767.67578125
 20
57874.658203125
 30
0.0
 11
59766.7712332929
 21
58777.84721061297
 31
0.0
  0
LINE
  5
38A
330
1E
100
AcDbEntity
  8
LAY0_0
  6
Continuous
 62
     0
100
AcDbLine
 10
70165.4846191406
 20
54568.5852050781
 30
0.0
 11
71273.9562988281
 21
55783.4777832031
 31
0.0
  0
LINE
  5
38B
330
1E
100
AcDbEntity
  8
LAY0_0
  6
Continuous
 62
     0
100
AcDbLine
 10
68415.478515625
 20
56568.6462402344
 30
0.0
 11
68747.3266601563
 21
54939.794921875
 31
0.0
  0
LINE
  5
38C
330
1E
100
AcDbEntity
  8
LAY0_0
  6
Continuous
 62
     0
100
AcDbLine
 10
55414.94140625
 20
58976.1779785156
 30
0.0
 11
55032.78111230236
 21
59826.39388617813
 31
0.0
  0
LINE
  5
38D
330
1E
100
AcDbEntity
  8
LAY0_0
  6
Continuous
 62
     0
100
AcDbLine
 10
69907.9345703125
 20
56158.7036132813
 30
0.0
 11
70165.4846191406
 21
54568.5852050781
 31
0.0
  0
LINE
  5
38E
330
1E
100
AcDbEntity
  8
LAY0_0
  6
Continuous
 62
     0
100
AcDbLine
 10
71500.0122070313
 20
54219.2626953125
 30
0.0
 11
72673.3520507813
 21
55399.0966796875
 31
0.0
  0
LINE
  5
38F
330
1E
100
AcDbEntity
  8
LAY0_0
  6
Continuous
 62
     0
100
AcDbLine
 10
80664.4409179688
 20
52018.1091308594
 30
0.0
 11
81497.5830078125
 21
52509.6557617188
 31
0.0
  0
LINE
  5
390
330
1E
100
AcDbEntity
  8
LAY0_0
  6
Continuous
 62
     0
100
AcDbLine
 10
54714.8193359375
 20
54127.6672363281
 30
0.0
 11
54728.1982421875
 21
54066.0339355469
 31
0.0
  0
LINE
  5
391
330
1E
100
AcDbEntity
  8
LAY0_0
  6
Continuous
 62
     0
100
AcDbLine
 10
52594.9462890625
 20
54066.0339355469
 30
0.0
 11
52594.9462890625
 21
53351.7395019531
 31
0.0
  0
LINE
  5
392
330
1E
100
AcDbEntity
  8
LAY0_0
  6
Continuous
 62
     0
100
AcDbLine
 10
68747.3266601563
 20
54939.794921875
 30
0.0
 11
69907.9345703125
 21
56158.7036132813
 31
0.0
  0
LINE
  5
393
330
1E
100
AcDbEntity
  8
LAY0_0
  6
Continuous
 62
     0
100
AcDbLine
 10
54418.6950683594
 20
54882.4462890625
 30
0.0
 11
54352.8930664063
 21
54215.7775878906
 31
0.0
  0
LINE
  5
394
330
1E
100
AcDbEntity
  8
LAY0_0
  6
Continuous
 62
     0
100
AcDbLine
 10
53499.7741699219
 20
54215.7775878906
 30
0.0
 11
53499.7741699219
 21
54882.4462890625
 31
0.0
  0
LINE
  5
395
330
1E
100
AcDbEntity
  8
LAY0_0
  6
Continuous
 62
     0
100
AcDbLine
 10
47476.2329101563
 20
51127.6550292969
 30
0.0
 11
60453.9794921875
 21
51127.6550292969
 31
0.0
  0
LINE
  5
396
330
1E
100
AcDbEntity
  8
LAY0_0
  6
Continuous
 62
     0
100
AcDbLine
 10
49647.80578613281
 20
54066.0339355469
 30
0.0
 11
49647.80578613281
 21
53351.7395019531
 31
0.0
  0
LINE
  5
397
330
1E
100
AcDbEntity
  8
LAY0_0
  6
Continuous
 62
     0
100
AcDbLine
 10
54508.0017089844
 20
54794.3237304688
 30
0.0
 11
54456.298828125
 21
54270.5200195313
 31
0.0
  0
LINE
  5
398
330
1E
100
AcDbEntity
  8
LAY0_0
  6
Continuous
 62
     0
100
AcDbLine
 10
74860.6689453125
 20
57958.2763671875
 30
0.0
 11
77119.8181152344
 21
57697.0581054688
 31
0.0
  0
LINE
  5
399
330
1E
100
AcDbEntity
  8
LAY0_0
  6
Continuous
 62
     0
100
AcDbLine
 10
74324.7314453125
 20
57896.1975097656
 30
0.0
 11
74755.6396484375
 21
57846.3745117188
 31
0.0
  0
LINE
  5
39A
330
1E
100
AcDbEntity
  8
LAY0_0
  6
Continuous
 62
     0
100
AcDbLine
 10
74755.6396484375
 20
57846.3745117188
 30
0.0
 11
74860.6689453125
 21
57958.2763671875
 31
0.0
  0
LINE
  5
39B
330
1E
100
AcDbEntity
  8
LAY0_0
  6
Continuous
 62
     0
100
AcDbLine
 10
74324.7314453125
 20
57896.1975097656
 30
0.0
 11
74252.9907226563
 21
58028.5400390625
 31
0.0
  0
LINE
  5
39C
330
1E
100
AcDbEntity
  8
LAY0_0
  6
Continuous
 62
     0
100
AcDbLine
 10
62935.7788085938
 20
58222.900390625
 30
0.0
 11
53060.2905273438
 21
60318.1396484375
 31
0.0
  0
LINE
  5
39D
330
1E
100
AcDbEntity
  8
LAY0_0
  6
Continuous
 62
     0
100
AcDbLine
 10
84910.05859375
 20
52800.67896793575
 30
0.0
 11
82479.9682617188
 21
52651.4709472656
 31
0.0
  0
LINE
  5
39E
330
1E
100
AcDbEntity
  8
LAY0_0
  6
Continuous
 62
     0
100
AcDbLine
 10
84906.6162109375
 20
52936.9812011719
 30
0.0
 11
82583.3618164063
 21
52794.3298339844
 31
0.0
  0
LINE
  5
39F
330
1E
100
AcDbEntity
  8
LAY0_0
  6
Continuous
 62
     0
100
AcDbLine
 10
52181.3171386719
 20
51841.9494628906
 30
0.0
 11
52181.3171386719
 21
51127.6550292969
 31
0.0
  0
LINE
  5
3A0
330
1E
100
AcDbEntity
  8
LAY0_0
  6
Continuous
 62
     0
100
AcDbLine
 10
49958.0322265625
 20
54651.46484375
 30
0.0
 11
51612.5671386719
 21
54651.46484375
 31
0.0
  0
LINE
  5
3A1
330
1E
100
AcDbEntity
  8
LAY0_0
  6
Continuous
 62
     0
100
AcDbLine
 10
54146.0693359375
 20
51841.9494628906
 30
0.0
 11
54146.0693359375
 21
51127.6550292969
 31
0.0
  0
LINE
  5
3A2
330
1E
100
AcDbEntity
  8
LAY0_0
  6
Continuous
 62
     0
100
AcDbLine
 10
56152.392578125
 20
51841.9494628906
 30
0.0
 11
56152.392578125
 21
52890.4235839844
 31
0.0
  0
LINE
  5
3A3
330
1E
100
AcDbEntity
  8
LAY0_0
  6
Continuous
 62
     0
100
AcDbLine
 10
59407.7514648438
 20
50510.3088378906
 30
0.0
 11
60028.2104492188
 21
50510.3088378906
 31
0.0
  0
LINE
  5
3A4
330
1E
100
AcDbEntity
  8
LAY0_0
  6
Continuous
 62
     0
100
AcDbLine
 10
57207.12890625
 20
52749.1760253906
 30
0.0
 11
58187.2863769531
 21
52749.1760253906
 31
0.0
  0
LINE
  5
3A5
330
1E
100
AcDbEntity
  8
LAY0_0
  6
Continuous
 62
     0
100
AcDbLine
 10
77191.5649414063
 20
57564.7216796875
 30
0.0
 11
77622.4670410156
 21
57514.8986816406
 31
0.0
  0
LINE
  5
3A6
330
1E
100
AcDbEntity
  8
LAY0_0
  6
Continuous
 62
     0
100
AcDbLine
 10
74252.9907226563
 20
58028.5400390625
 30
0.0
 11
74355.8837890625
 21
58124.7192382813
 31
0.0
  0
LINE
  5
3A7
330
1E
100
AcDbEntity
  8
LAY0_0
  6
Continuous
 62
     0
100
AcDbLine
 10
50624.63073730469
 20
56726.8371582031
 30
0.0
 11
50624.63073730469
 21
56651.4587402344
 31
0.0
  0
LINE
  5
3A8
330
1E
100
AcDbEntity
  8
LAY0_0
  6
Continuous
 62
     0
100
AcDbLine
 10
62896.1791992188
 20
58084.7045898438
 30
0.0
 11
53887.5549316406
 21
60080.0537109375
 31
0.0
  0
LINE
  5
3A9
330
1E
100
AcDbEntity
  8
LAY0_0
  6
Continuous
 62
     0
100
AcDbLine
 10
48200.0915527344
 20
53351.7395019531
 30
0.0
 11
59781.8298339844
 21
53351.7395019531
 31
0.0
  0
LINE
  5
3AA
330
1E
100
AcDbEntity
  8
LAY0_0
  6
Continuous
 62
     0
100
AcDbLine
 10
82376.5625
 20
52318.1396484375
 30
0.0
 11
77671.4782714844
 21
54175.2746582031
 31
0.0
  0
LINE
  5
3AB
330
1E
100
AcDbEntity
  8
LAY0_0
  6
Continuous
 62
     0
100
AcDbLine
 10
59732.99202639481
 20
58785.32907563402
 30
0.0
 11
60060.2111816406
 21
57450.0122070313
 31
0.0
  0
LINE
  5
3AC
330
1E
100
AcDbEntity
  8
LAY0_0
  6
Continuous
 62
     0
100
AcDbLine
 10
57661.962890625
 20
53351.7395019531
 30
0.0
 11
57661.962890625
 21
54066.0339355469
 31
0.0
  0
LINE
  5
3AD
330
1E
100
AcDbEntity
  8
LAY0_0
  6
Continuous
 62
     0
100
AcDbLine
 10
83175.5737304688
 20
52694.1955566406
 30
0.0
 11
83226.9287109375
 21
51795.4467773438
 31
0.0
  0
LINE
  5
3AE
330
1E
100
AcDbEntity
  8
LAY0_0
  6
Continuous
 62
     0
100
AcDbLine
 10
81807.8125
 20
51794.3237304688
 30
0.0
 11
77671.4782714844
 21
52603.857421875
 31
0.0
  0
LINE
  5
3AF
330
1E
100
AcDbEntity
  8
LAY0_0
  6
Continuous
 62
     0
100
AcDbLine
 10
77671.4782714844
 20
54175.2746582031
 30
0.0
 11
62935.7788085938
 21
58222.900390625
 31
0.0
  0
LINE
  5
3B0
330
1E
100
AcDbEntity
  8
LAY0_0
  6
Continuous
 62
     0
100
AcDbLine
 10
58644.3359375
 20
53351.7395019531
 30
0.0
 11
58644.3359375
 21
54066.0339355469
 31
0.0
  0
LINE
  5
3B1
330
1E
100
AcDbEntity
  8
LAY0_0
  6
Continuous
 62
     0
100
AcDbLine
 10
84105.712890625
 20
52750.9704589844
 30
0.0
 11
84160.3210449219
 21
51795.5810546875
 31
0.0
  0
LINE
  5
3B2
330
1E
100
AcDbEntity
  8
LAY0_0
  6
Continuous
 62
     0
100
AcDbLine
 10
77671.4782714844
 20
52603.857421875
 30
0.0
 11
67847.6806640625
 21
55175.2807617188
 31
0.0
  0
LINE
  5
3B3
330
1E
100
AcDbEntity
  8
LAY0_0
  6
Continuous
 62
     0
100
AcDbLine
 10
51612.5671386719
 20
54651.46484375
 30
0.0
 11
51612.5671386719
 21
54066.0339355469
 31
0.0
  0
LINE
  5
3B4
330
1E
100
AcDbEntity
  8
LAY0_0
  6
Continuous
 62
     0
100
AcDbLine
 10
67803.6682128906
 20
55038.2934570313
 30
0.0
 11
62736.6577148438
 21
56419.23828125
 31
0.0
  0
LINE
  5
3B5
330
1E
100
AcDbEntity
  8
LAY0_0
  6
Continuous
 62
     0
100
AcDbLine
 10
70357.2875976563
 20
58478.9733886719
 30
0.0
 11
74252.9907226563
 21
58028.5339355469
 31
0.0
  0
LINE
  5
3B6
330
1E
100
AcDbEntity
  8
LAY0_0
  6
Continuous
 62
     0
100
AcDbLine
 10
51612.5671386719
 20
54066.0339355469
 30
0.0
 11
51612.5671386719
 21
53351.7395019531
 31
0.0
  0
LINE
  5
3B7
330
1E
100
AcDbEntity
  8
LAY0_0
  6
Continuous
 62
     0
100
AcDbLine
 10
56679.5776367188
 20
53351.7395019531
 30
0.0
 11
56679.5776367188
 21
54066.0339355469
 31
0.0
  0
LINE
  5
3B8
330
1E
100
AcDbEntity
  8
LAY0_0
  6
Continuous
 62
     0
100
AcDbLine
 10
67847.6806640625
 20
55175.2807617188
 30
0.0
 11
62780.6701660156
 21
56556.2316894531
 31
0.0
  0
LINE
  5
3B9
330
1E
100
AcDbEntity
  8
LAY0_0
  6
Continuous
 62
     0
100
AcDbLine
 10
54405.5908203125
 20
59307.7941894531
 30
0.0
 11
54005.54074803586
 21
60053.92065354127
 31
0.0
  0
LINE
  5
3BA
330
1E
100
AcDbEntity
  8
LAY0_0
  6
Continuous
 62
     0
100
AcDbLine
 10
53209.8388671875
 20
57008.7829589844
 30
0.0
 11
53048.2543945313
 21
57008.7829589844
 31
0.0
  0
LINE
  5
3BB
330
1E
100
AcDbEntity
  8
LAY0_0
  6
Continuous
 62
     0
100
AcDbLine
 10
48665.4357910156
 20
48889.5690917969
 30
0.0
 11
48665.4357910156
 21
50889.5629882813
 31
0.0
  0
LINE
  5
3BC
330
1E
100
AcDbEntity
  8
LAY0_0
  6
Continuous
 62
     0
100
AcDbLine
 10
54216.4245605469
 20
50077.5756835938
 30
0.0
 11
54216.4245605469
 21
50603.8513183594
 31
0.0
  0
LINE
  5
3BD
330
1E
100
AcDbEntity
  8
LAY0_0
  6
Continuous
 62
     0
100
AcDbLine
 10
48254.0405273438
 20
48889.5690917969
 30
0.0
 11
48254.0405273438
 21
49206.0119628906
 31
0.0
  0
LINE
  5
3BE
330
1E
100
AcDbEntity
  8
LAY0_0
  6
Continuous
 62
     0
100
AcDbLine
 10
56110.8337402344
 20
51841.9494628906
 30
0.0
 11
56110.8337402344
 21
51127.6550292969
 31
0.0
  0
LINE
  5
3BF
330
1E
100
AcDbEntity
  8
LAY0_0
  6
Continuous
 62
     0
100
AcDbLine
 10
48200.0915527344
 20
52889.5629882813
 30
0.0
 11
48820.5383300781
 21
52889.5629882813
 31
0.0
  0
LINE
  5
3C0
330
1E
100
AcDbEntity
  8
LAY0_0
  6
Continuous
 62
     0
100
AcDbLine
 10
48254.0405273438
 20
49206.0119628906
 30
0.0
 11
47993.2708740234
 21
49206.0119628906
 31
0.0
  0
LINE
  5
3C1
330
1E
100
AcDbEntity
  8
LAY0_0
  6
Continuous
 62
     0
100
AcDbLine
 10
47476.2329101563
 20
51841.9494628906
 30
0.0
 11
47476.2329101563
 21
51127.6550292969
 31
0.0
  0
LINE
  5
3C2
330
1E
100
AcDbEntity
  8
LAY0_0
  6
Continuous
 62
     0
100
AcDbLine
 10
60060.2111816406
 20
57450.0122070313
 30
0.0
 11
61053.13306561043
 21
58492.92679709757
 31
0.0
  0
LINE
  5
3C3
330
1E
100
AcDbEntity
  8
LAY0_0
  6
Continuous
 62
     0
100
AcDbLine
 10
64015.6005859375
 20
57777.2216796875
 30
0.0
 11
64219.3481445313
 21
56164.1235351563
 31
0.0
  0
LINE
  5
3C4
330
1E
100
AcDbEntity
  8
LAY0_0
  6
Continuous
 62
     0
100
AcDbLine
 10
54818.2250976563
 20
55032.4279785156
 30
0.0
 11
54818.2250976563
 21
55080.0415039063
 31
0.0
  0
LINE
  5
3C5
330
1E
100
AcDbEntity
  8
LAY0_0
  6
Continuous
 62
     0
100
AcDbLine
 10
56568.0603027344
 20
58597.3266601563
 30
0.0
 11
56169.18818134275
 21
59574.68743477521
 31
0.0
  0
LINE
  5
3C7
330
1E
100
AcDbEntity
  8
LAY0_0
  6
Continuous
 62
     0
100
AcDbLine
 10
56169.18818134276
 20
59574.68743477519
 30
0.0
 11
55414.94140625
 21
58976.1779785156
 31
0.0
  0
LINE
  5
3C8
330
1E
100
AcDbEntity
  8
LAY0_0
  6
Continuous
 62
     0
100
AcDbLine
 10
55032.78111230236
 20
59826.39388617813
 30
0.0
 11
54405.5908203125
 21
59307.7941894531
 31
0.0
  0
LINE
  5
3C9
330
1E
100
AcDbEntity
  8
LAY0_0
  6
Continuous
 62
     0
100
AcDbLine
 10
47269.8425292969
 20
49206.0119628906
 30
0.0
 11
47269.4183349609
 21
49206.0119628906
 31
0.0
  0
LINE
  5
3CA
330
1E
100
AcDbEntity
  8
LAY0_0
  6
Continuous
 62
     0
100
AcDbLine
 10
53718.017578125
 20
50603.8513183594
 30
0.0
 11
53718.017578125
 21
50077.5756835938
 31
0.0
  0
LINE
  5
3CB
330
1E
100
AcDbEntity
  8
LAY0_0
  6
Continuous
 62
     0
100
AcDbLine
 10
52123.7548828125
 20
50565.1428222656
 30
0.0
 11
52123.7548828125
 21
49365.5151367188
 31
0.0
  0
LINE
  5
3CC
330
1E
100
AcDbEntity
  8
LAY0_0
  6
Continuous
 62
     0
100
AcDbLine
 10
47993.2708740234
 20
49206.0119628906
 30
0.0
 11
47993.2708740234
 21
48889.5690917969
 31
0.0
  0
LINE
  5
3CD
330
1E
100
AcDbEntity
  8
LAY0_0
  6
Continuous
 62
     0
100
AcDbLine
 10
47476.2329101563
 20
50889.5629882813
 30
0.0
 11
47476.2329101563
 21
51127.6550292969
 31
0.0
  0
LINE
  5
3CE
330
1E
100
AcDbEntity
  8
LAY0_0
  6
Continuous
 62
     0
100
AcDbLine
 10
59407.7514648438
 20
50272.216796875
 30
0.0
 11
60028.2104492188
 21
50272.216796875
 31
0.0
  0
LINE
  5
3CF
330
1E
100
AcDbEntity
  8
LAY0_0
  6
Continuous
 62
     0
100
AcDbLine
 10
53718.017578125
 20
50077.5756835938
 30
0.0
 11
54714.8193359375
 21
50077.5756835938
 31
0.0
  0
LINE
  5
3D0
330
1E
100
AcDbEntity
  8
LAY0_0
  6
Continuous
 62
     0
100
AcDbLine
 10
48200.0915527344
 20
52175.2807617188
 30
0.0
 11
48820.5383300781
 21
52175.2807617188
 31
0.0
  0
LINE
  5
3D1
330
1E
100
AcDbEntity
  8
LAY0_0
  6
Continuous
 62
     0
100
AcDbLine
 10
47530.1879882813
 20
48889.5690917969
 30
0.0
 11
47530.1879882813
 21
49206.0119628906
 31
0.0
  0
LINE
  5
3D2
330
1E
100
AcDbEntity
  8
LAY0_0
  6
Continuous
 62
     0
100
AcDbLine
 10
52212.2619628906
 20
50178.5400390625
 30
0.0
 11
52212.2619628906
 21
50464.4836425781
 31
0.0
  0
LINE
  5
3D3
330
1E
100
AcDbEntity
  8
LAY0_0
  6
Continuous
 62
     0
100
AcDbLine
 10
51198.9349365234
 20
51484.8083496094
 30
0.0
 11
52181.3171386719
 21
51484.8083496094
 31
0.0
  0
LINE
  5
3D4
330
1E
100
AcDbEntity
  8
LAY0_0
  6
Continuous
 62
     0
100
AcDbLine
 10
55128.4545898438
 20
51841.9494628906
 30
0.0
 11
55128.4545898438
 21
51127.6550292969
 31
0.0
  0
LINE
  5
3D5
330
1E
100
AcDbEntity
  8
LAY0_0
  6
Continuous
 62
     0
100
AcDbLine
 10
59722.4975585938
 20
49796.0205078125
 30
0.0
 11
60028.2104492188
 21
49796.0205078125
 31
0.0
  0
LINE
  5
3D6
330
1E
100
AcDbEntity
  8
LAY0_0
  6
Continuous
 62
     0
100
AcDbLine
 10
48200.0915527344
 20
54066.0339355469
 30
0.0
 11
59781.8298339844
 21
54066.0339355469
 31
0.0
  0
LINE
  5
3D7
330
1E
100
AcDbEntity
  8
LAY0_0
  6
Continuous
 62
     0
100
AcDbLine
 10
52179.4921875
 20
52080.3283691406
 30
0.0
 11
51199.3347167969
 21
52080.3283691406
 31
0.0
  0
LINE
  5
3D8
330
1E
100
AcDbEntity
  8
LAY0_0
  6
Continuous
 62
     0
100
AcDbLine
 10
52775.7568359375
 20
50565.1428222656
 30
0.0
 11
52123.7548828125
 21
50565.1428222656
 31
0.0
  0
LINE
  5
3D9
330
1E
100
AcDbEntity
  8
LAY0_0
  6
Continuous
 62
     0
100
AcDbLine
 10
56721.5393066406
 20
50603.8513183594
 30
0.0
 11
56721.5393066406
 21
50077.5756835938
 31
0.0
  0
LINE
  5
3DA
330
1E
100
AcDbEntity
  8
LAY0_0
  6
Continuous
 62
     0
100
AcDbLine
 10
53209.8388671875
 20
56258.4167480469
 30
0.0
 11
53048.2543945313
 21
56258.4167480469
 31
0.0
  0
LINE
  5
3DB
330
1E
100
AcDbEntity
  8
LAY0_0
  6
Continuous
 62
     0
100
AcDbLine
 10
47530.1879882813
 20
49206.0119628906
 30
0.0
 11
47269.8425292969
 21
49206.0119628906
 31
0.0
  0
LINE
  5
3DC
330
1E
100
AcDbEntity
  8
LAY0_0
  6
Continuous
 62
     0
100
AcDbLine
 10
74010.05859375
 20
55031.9213867188
 30
0.0
 11
73574.4873046875
 21
53676.2634277344
 31
0.0
  0
LINE
  5
3DD
330
1E
100
AcDbEntity
  8
LAY0_0
  6
Continuous
 62
     0
100
AcDbLine
 10
77051.0192871094
 20
54175.2746582031
 30
0.0
 11
77257.8491210938
 21
52712.1215820313
 31
0.0
  0
LINE
  5
3DE
330
1E
100
AcDbEntity
  8
LAY0_0
  6
Continuous
 62
     0
100
AcDbLine
 10
68149.6032714844
 20
56641.6931152344
 30
0.0
 11
67692.0654296875
 21
55217.6940917969
 31
0.0
  0
LINE
  5
3DF
330
1E
100
AcDbEntity
  8
LAY0_0
  6
Continuous
 62
     0
100
AcDbLine
 10
68415.6555175781
 20
56569.1772460938
 30
0.0
 11
67958.1176757813
 21
55145.1904296875
 31
0.0
  0
LINE
  5
3E0
330
1E
100
AcDbEntity
  8
LAY0_0
  6
Continuous
 62
     0
100
AcDbLine
 10
75653.4912109375
 20
53132.0495605469
 30
0.0
 11
76840.0512695313
 21
54254.5837402344
 31
0.0
  0
LINE
  5
3E1
330
1E
100
AcDbEntity
  8
LAY0_0
  6
Continuous
 62
     0
100
AcDbLine
 10
58433.6784156462
 20
59073.11822015003
 30
0.0
 11
58767.67578125
 21
57874.658203125
 31
0.0
  0
LINE
  5
3E2
330
1E
100
AcDbEntity
  8
LAY0_0
  6
Continuous
 62
     0
100
AcDbLine
 10
83149.7680664063
 20
52692.6025390625
 30
0.0
 11
83201.1108398438
 21
51794.1955566406
 31
0.0
  0
LINE
  5
3E3
330
1E
100
AcDbEntity
  8
LAY0_0
  6
Continuous
 62
     0
100
AcDbLine
 10
74389.3310546875
 20
53462.9760742188
 30
0.0
 11
75513.232421875
 21
54619.0490722656
 31
0.0
  0
LINE
  5
3E4
330
1E
100
AcDbEntity
  8
LAY0_0
  6
Continuous
 62
     0
100
AcDbLine
 10
87593.7744140625
 20
49699.3835449219
 30
0.0
 11
87593.7744140625
 21
49318.1335449219
 31
0.0
  0
LINE
  5
3E5
330
1E
100
AcDbEntity
  8
LAY0_0
  6
Continuous
 62
     0
100
AcDbLine
 10
48923.9501953125
 20
54066.0339355469
 30
0.0
 11
48923.9501953125
 21
53351.7395019531
 31
0.0
  0
LINE
  5
3E6
330
1E
100
AcDbEntity
  8
LAY0_0
  6
Continuous
 62
     0
100
AcDbLine
 10
75513.232421875
 20
54619.0490722656
 30
0.0
 11
75653.4912109375
 21
53132.0495605469
 31
0.0
  0
LINE
  5
3E7
330
1E
100
AcDbEntity
  8
LAY0_0
  6
Continuous
 62
     0
100
AcDbLine
 10
71273.9562988281
 20
55783.4777832031
 30
0.0
 11
71500.0122070313
 21
54219.2626953125
 31
0.0
  0
LINE
  5
3E8
330
1E
100
AcDbEntity
  8
LAY0_0
  6
Continuous
 62
     0
100
AcDbLine
 10
50630.1879882813
 20
54066.0339355469
 30
0.0
 11
50630.1879882813
 21
53351.7395019531
 31
0.0
  0
LINE
  5
3E9
330
1E
100
AcDbEntity
  8
LAY0_0
  6
Continuous
 62
     0
100
AcDbLine
 10
91424.79248046881
 20
48002.3559570313
 30
0.0
 11
91424.79248046881
 21
49270.5200195313
 31
0.0
  0
LINE
  5
3EA
330
1E
100
AcDbEntity
  8
LAY0_0
  6
Continuous
 62
     0
100
AcDbLine
 10
90856.04248046881
 20
47556.2316894531
 30
0.0
 11
91166.27197265631
 21
47603.8452148438
 31
0.0
  0
LINE
  5
3EB
330
1E
100
AcDbEntity
  8
LAY0_0
  6
Continuous
 62
     0
100
AcDbLine
 10
91166.27197265631
 20
47603.8452148438
 30
0.0
 11
91269.677734375
 21
47508.6181640625
 31
0.0
  0
LINE
  5
3EC
330
1E
100
AcDbEntity
  8
LAY0_0
  6
Continuous
 62
     0
100
AcDbLine
 10
90700.93994140631
 20
56222.900390625
 30
0.0
 11
90390.70434570311
 21
56222.900390625
 31
0.0
  0
LINE
  5
3ED
330
1E
100
AcDbEntity
  8
LAY0_0
  6
Continuous
 62
     0
100
AcDbLine
 10
81807.81249999999
 20
51648.27915586616
 30
0.0
 11
77639.2333984375
 21
52464.1174316406
 31
0.0
  0
LINE
  5
3EE
330
1E
100
AcDbEntity
  8
LAY0_0
  6
Continuous
 62
     0
100
AcDbLine
 10
62780.6701660156
 20
56556.2316894531
 30
0.0
 11
64015.6005859375
 21
57777.2216796875
 31
0.0
  0
LINE
  5
3EF
330
1E
100
AcDbEntity
  8
LAY0_0
  6
Continuous
 62
     0
100
AcDbLine
 10
57683.5327148438
 20
58230.8471679688
 30
0.0
 11
58478.74294005156
 21
59063.13673391039
 31
0.0
  0
LINE
  5
3F0
330
1E
100
AcDbEntity
  8
LAY0_0
  6
Continuous
 62
     0
100
AcDbLine
 10
57347.08651742777
 20
59313.79094938134
 30
0.0
 11
57683.5327148438
 21
58230.8471679688
 31
0.0
  0
LINE
  5
3F1
330
1E
100
AcDbEntity
  8
LAY0_0
  6
Continuous
 62
     0
100
AcDbLine
 10
77629.0771484375
 20
52466.4306640625
 30
0.0
 11
67805.2795410156
 21
55037.8662109375
 31
0.0
  0
LINE
  5
3F2
330
1E
100
AcDbEntity
  8
LAY0_0
  6
Continuous
 62
     0
100
AcDbLine
 10
72673.3520507813
 20
55399.0966796875
 30
0.0
 11
72872.7661132813
 21
53859.9365234375
 31
0.0
  0
LINE
  5
3F4
330
1E
100
AcDbEntity
  8
LAY0_0
  6
Continuous
 62
     0
100
AcDbLine
 10
66938.2690429688
 20
55423.1262207031
 30
0.0
 11
68149.6032714844
 21
56641.6931152344
 31
0.0
  0
LINE
  5
3F5
330
1E
100
AcDbEntity
  8
LAY0_0
  6
Continuous
 62
     0
100
AcDbLine
 10
62896.1791992188
 20
58084.7045898438
 30
0.0
 11
77627.1484375
 21
54038.37890625
 31
0.0
  0
LINE
  5
3F6
330
1E
100
AcDbEntity
  8
LAY0_0
  6
Continuous
 62
     0
100
AcDbLine
 10
64219.3481445313
 20
56164.1235351563
 30
0.0
 11
65351.8615722656
 21
57410.1684570313
 31
0.0
  0
LINE
  5
3F7
330
1E
100
AcDbEntity
  8
LAY0_0
  6
Continuous
 62
     0
100
AcDbLine
 10
65575.4455566406
 20
55794.5373535156
 30
0.0
 11
66781.1828613281
 21
57017.5659179688
 31
0.0
  0
LINE
  5
3F8
330
1E
100
AcDbEntity
  8
LAY0_0
  6
Continuous
 62
     0
100
AcDbLine
 10
61014.63385326456
 20
58501.45411128399
 30
0.0
 11
61306.9641113281
 21
57040.3991699219
 31
0.0
  0
LINE
  5
3F9
330
1E
100
AcDbEntity
  8
LAY0_0
  6
Continuous
 62
     0
100
AcDbLine
 10
53887.5549316406
 20
60080.0537109375
 30
0.0
 11
53725.06766136643
 21
59531.35628828364
 31
0.0
  0
LINE
  5
3FA
330
1E
100
AcDbEntity
  8
LAY0_0
  6
Continuous
 62
     0
100
AcDbLine
 10
62728.5522460938
 20
56421.6796875
 30
0.0
 11
52233.0200195313
 21
59937.1887207031
 31
0.0
  0
LINE
  5
3FB
330
1E
100
AcDbEntity
  8
LAY0_0
  6
Continuous
 62
     0
100
AcDbLine
 10
66781.1828613281
 20
57017.5659179688
 30
0.0
 11
66938.2690429688
 21
55423.1262207031
 31
0.0
  0
LINE
  5
3FC
330
1E
100
AcDbEntity
  8
LAY0_0
  6
Continuous
 62
     0
100
AcDbLine
 10
56568.0603027344
 20
58597.3266601563
 30
0.0
 11
57347.08651742777
 21
59313.79094938134
 31
0.0
  0
LINE
  5
3FD
330
1E
100
AcDbEntity
  8
LAY0_0
  6
Continuous
 62
     0
100
AcDbLine
 10
65351.8615722656
 20
57410.1684570313
 30
0.0
 11
65575.4455566406
 21
55794.5373535156
 31
0.0
  0
LINE
  5
3FE
330
1E
100
AcDbEntity
  8
LAY0_0
  6
Continuous
 62
     0
100
AcDbLine
 10
88374.2431640625
 20
54127.6672363281
 30
0.0
 11
88374.2431640625
 21
53413.37890625
 31
0.0
  0
LINE
  5
3FF
330
1E
100
AcDbEntity
  8
LAY0_0
  6
Continuous
 62
     0
100
AcDbLine
 10
50331.9091796875
 20
56072.7233886719
 30
0.0
 11
49958.0322265625
 21
54651.46484375
 31
0.0
  0
LINE
  5
400
330
1E
100
AcDbEntity
  8
LAY0_0
  6
Continuous
 62
     0
100
AcDbLine
 10
81911.2182617188
 20
49603.8513183594
 30
0.0
 11
81911.2182617188
 21
49318.1335449219
 31
0.0
  0
LINE
  5
401
330
1E
100
AcDbEntity
  8
LAY0_0
  6
Continuous
 62
     0
100
AcDbLine
 10
82531.6772460938
 20
51841.9494628906
 30
0.0
 11
82568.8842773438
 21
51794.3237304688
 31
0.0
  0
LINE
  5
402
330
1E
100
AcDbEntity
  8
LAY0_0
  6
Continuous
 62
     0
100
AcDbLine
 10
90907.75146484381
 20
53413.37890625
 30
0.0
 11
90907.75146484381
 21
54127.6672363281
 31
0.0
  0
LINE
  5
403
330
1E
100
AcDbEntity
  8
LAY0_0
  6
Continuous
 62
     0
100
AcDbLine
 10
82479.9682617188
 20
49754.7607421875
 30
0.0
 11
82479.9682617188
 21
49585.6079101563
 31
0.0
  0
LINE
  5
405
330
1E
100
AcDbEntity
  8
LAY0_0
  6
Continuous
 62
     0
100
AcDbLine
 10
50463.04016113281
 20
56726.8371582031
 30
0.0
 11
50624.63073730469
 21
56726.8371582031
 31
0.0
  0
LINE
  5
406
330
1E
100
AcDbEntity
  8
LAY0_0
  6
Continuous
 62
     0
100
AcDbLine
 10
50368.310546875
 20
56055.9936523438
 30
0.0
 11
49998.8433837891
 21
54651.46484375
 31
0.0
  0
LINE
  5
407
330
1E
100
AcDbEntity
  8
LAY0_0
  6
Continuous
 62
     0
100
AcDbLine
 10
53629.1259765625
 20
55413.3728027344
 30
0.0
 11
53939.2944335938
 21
55413.3728027344
 31
0.0
  0
LINE
  5
408
330
1E
100
AcDbEntity
  8
LAY0_0
  6
Continuous
 62
     0
100
AcDbLine
 10
50509.20104980469
 20
56726.8371582031
 30
0.0
 11
50509.20104980469
 21
56841.4245605469
 31
0.0
  0
LINE
  5
409
330
1E
100
AcDbEntity
  8
LAY0_0
  6
Continuous
 62
     0
100
AcDbLine
 10
88477.65502929689
 20
54032.4279785156
 30
0.0
 11
89819.05517578131
 21
54032.4279785156
 31
0.0
  0
LINE
  5
40B
330
1E
100
AcDbEntity
  8
LAY0_0
  6
Continuous
 62
     0
100
AcDbLine
 10
50624.63073730469
 20
56651.4587402344
 30
0.0
 11
50463.04016113281
 21
56651.4587402344
 31
0.0
  0
LINE
  5
40C
330
1E
100
AcDbEntity
  8
LAY0_0
  6
Continuous
 62
     0
100
AcDbLine
 10
53172.1862792969
 20
56448.3825683594
 30
0.0
 11
53172.1862792969
 21
56333.7951660156
 31
0.0
  0
LINE
  5
40D
330
1E
100
AcDbEntity
  8
LAY0_0
  6
Continuous
 62
     0
100
AcDbLine
 10
50624.63073730469
 20
57786.8041992188
 30
0.0
 11
50624.63073730469
 21
57711.4318847656
 31
0.0
  0
LINE
  5
40E
330
1E
100
AcDbEntity
  8
LAY0_0
  6
Continuous
 62
     0
100
AcDbLine
 10
50509.20104980469
 20
56841.4245605469
 30
0.0
 11
50586.9781494141
 21
56841.4245605469
 31
0.0
  0
LINE
  5
40F
330
1E
100
AcDbEntity
  8
LAY0_0
  6
Continuous
 62
     0
100
AcDbLine
 10
50463.04016113281
 20
54651.46484375
 30
0.0
 11
50463.04016113281
 21
59413.3728027344
 31
0.0
  0
LINE
  5
411
330
1E
100
AcDbEntity
  8
LAY0_0
  6
Continuous
 62
     0
100
AcDbLine
 10
79365.4541015625
 20
57437.4084472656
 30
0.0
 11
81413.7878417969
 21
57200.5798339844
 31
0.0
  0
LINE
  5
412
330
1E
100
AcDbEntity
  8
LAY0_0
  6
Continuous
 62
     0
100
AcDbLine
 10
50678.2165527344
 20
58404.9682617188
 30
0.0
 11
50692.3278808594
 21
58280.1208496094
 31
0.0
  0
LINE
  5
413
330
1E
100
AcDbEntity
  8
LAY0_0
  6
Continuous
 62
     0
100
AcDbLine
 10
53094.4152832031
 20
57084.1491699219
 30
0.0
 11
53094.4152832031
 21
57198.7487792969
 31
0.0
  0
LINE
  5
414
330
1E
100
AcDbEntity
  8
LAY0_0
  6
Continuous
 62
     0
100
AcDbLine
 10
50770.01953125
 20
58884.7717285156
 30
0.0
 11
50540.1794433594
 21
58884.7717285156
 31
0.0
  0
LINE
  5
415
330
1E
100
AcDbEntity
  8
LAY0_0
  6
Continuous
 62
     0
100
AcDbLine
 10
52026.2084960938
 20
57032.4340820313
 30
0.0
 11
52039.23041726995
 21
56853.28714423232
 31
0.0
  0
LINE
  5
417
330
1E
100
AcDbEntity
  8
LAY0_0
  6
Continuous
 62
     0
100
AcDbLine
 10
53121.36268541082
 20
60471.86470732627
 30
0.0
 11
62707.5317382813
 21
59363.4765625
 31
0.0
  0
LINE
  5
418
330
1E
100
AcDbEntity
  8
LAY0_0
  6
Continuous
 62
     0
100
AcDbLine
 10
82576.7883300781
 20
51869.1528320313
 30
0.0
 11
82635.2783203125
 21
51794.3237304688
 31
0.0
  0
LINE
  5
419
330
1E
100
AcDbEntity
  8
LAY0_0
  6
Continuous
 62
     0
100
AcDbLine
 10
88477.65502929689
 20
54032.4279785156
 30
0.0
 11
88374.2431640625
 21
54032.4279785156
 31
0.0
  0
LINE
  5
41A
330
1E
100
AcDbEntity
  8
LAY0_0
  6
CENTER
 62
     0
 48
100.0
100
AcDbLine
 10
81187.353515625
 20
48841.943359375
 30
0.0
 11
81187.353515625
 21
47080.0415039063
 31
0.0
  0
LINE
  5
41B
330
1E
100
AcDbEntity
  8
LAY0_0
  6
Continuous
 62
     0
100
AcDbLine
 10
62780.6701660156
 20
56556.2316894531
 30
0.0
 11
53649.35259880307
 21
59556.2316894531
 31
0.0
  0
LINE
  5
41C
330
1E
100
AcDbEntity
  8
LAY0_0
  6
Continuous
 62
     0
100
AcDbLine
 10
81032.2509765625
 20
49746.7041015625
 30
0.0
 11
80679.8706054688
 21
49746.7041015625
 31
0.0
  0
LINE
  5
41E
330
1E
100
AcDbEntity
  8
LAY0_0
  6
CENTER
 62
     0
 48
100.0
100
AcDbLine
 10
85840.7348632813
 20
47080.0415039063
 30
0.0
 11
85840.7348632813
 21
48889.5690917969
 31
0.0
  0
LINE
  5
41F
330
1E
100
AcDbEntity
  8
LAY0_0
  6
Continuous
 62
     0
100
AcDbLine
 10
61306.9641113281
 20
57040.3991699219
 30
0.0
 11
62623.0285644531
 21
58142.6452636719
 31
0.0
  0
LINE
  5
422
330
1E
100
AcDbEntity
  8
LAY0_0
  6
Continuous
 62
     0
100
AcDbLine
 10
90752.63671875
 20
51127.6550292969
 30
0.0
 11
89873.6572265625
 21
51127.6550292969
 31
0.0
  0
LINE
  5
423
330
1E
100
AcDbEntity
  8
LAY0_0
  6
Continuous
 62
     0
100
AcDbLine
 10
68434.1064453125
 20
58577.294921875
 30
0.0
 11
68362.3596191406
 21
58709.6435546875
 31
0.0
  0
LINE
  5
424
330
1E
100
AcDbEntity
  8
LAY0_0
  6
Continuous
 62
     0
100
AcDbLine
 10
68970.0439453125
 20
58639.3859863281
 30
0.0
 11
70357.2875976563
 21
58478.9733886719
 31
0.0
  0
LINE
  5
426
330
1E
100
AcDbEntity
  8
LAY0_0
  6
Continuous
 62
     0
100
AcDbLine
 10
86099.2614746094
 20
51794.3237304688
 30
0.0
 11
86099.2614746094
 21
53080.0354003906
 31
0.0
  0
LINE
  5
427
330
1E
100
AcDbEntity
  8
LAY0_0
  6
Continuous
 62
     0
100
AcDbLine
 10
77622.4670410156
 20
57514.8986816406
 30
0.0
 11
77727.5085449219
 21
57626.7883300781
 31
0.0
  0
LINE
  5
428
330
1E
100
AcDbEntity
  8
LAY0_0
  6
Continuous
 62
     0
100
AcDbLine
 10
68865.0024414063
 20
58527.4719238281
 30
0.0
 11
68970.0439453125
 21
58639.3676757813
 31
0.0
  0
LINE
  5
429
330
1E
100
AcDbEntity
  8
LAY0_0
  6
Continuous
 62
     0
100
AcDbLine
 10
68465.2587890625
 20
58805.8166503906
 30
0.0
 11
68896.1547851563
 21
58755.9875488281
 31
0.0
  0
LINE
  5
42A
330
1E
100
AcDbEntity
  8
LAY0_0
  6
Continuous
 62
     0
100
AcDbLine
 10
77119.8181152344
 20
57697.0642089844
 30
0.0
 11
77222.7111816406
 21
57793.2434082031
 31
0.0
  0
LINE
  5
42B
330
1E
100
AcDbEntity
  8
LAY0_0
  6
Continuous
 62
     0
100
AcDbLine
 10
50540.1794433594
 20
58884.7717285156
 30
0.0
 11
50540.1794433594
 21
58404.9682617188
 31
0.0
  0
LINE
  5
42C
330
1E
100
AcDbEntity
  8
LAY0_0
  6
Continuous
 62
     0
100
AcDbLine
 10
81480.419921875
 20
57266.3391113281
 30
0.0
 11
81855.7983398438
 21
57225.4821777344
 31
0.0
  0
LINE
  5
42D
330
1E
100
AcDbEntity
  8
LAY0_0
  6
Continuous
 62
     0
100
AcDbLine
 10
90907.75146484381
 20
51127.6550292969
 30
0.0
 11
90907.75146484381
 21
53413.37890625
 31
0.0
  0
LINE
  5
42E
330
1E
100
AcDbEntity
  8
LAY0_0
  6
Continuous
 62
     0
100
AcDbLine
 10
50655.1025390625
 20
59627.9541015625
 30
0.0
 11
50655.1025390625
 21
58884.7717285156
 31
0.0
  0
LINE
  5
42F
330
1E
100
AcDbEntity
  8
LAY0_0
  6
Continuous
 62
     0
100
AcDbLine
 10
50617.8283691406
 20
58280.1208496094
 30
0.0
 11
50631.9488525391
 21
58404.9682617188
 31
0.0
  0
LINE
  5
430
330
1E
100
AcDbEntity
  8
LAY0_0
  6
Continuous
 62
     0
100
AcDbLine
 10
62710.15625
 20
58117.4072265625
 30
0.0
 11
62267.8894042969
 21
56724.7009277344
 31
0.0
  0
LINE
  5
431
330
1E
100
AcDbEntity
  8
LAY0_0
  6
Continuous
 62
     0
100
AcDbLine
 10
50540.1794433594
 20
58404.9682617188
 30
0.0
 11
50770.01953125
 21
58404.9682617188
 31
0.0
  0
LINE
  5
432
330
1E
100
AcDbEntity
  8
LAY0_0
  6
Continuous
 62
     0
100
AcDbLine
 10
77438.1713867188
 20
57768.3288574219
 30
0.0
 11
77407.0251464844
 21
57539.8193359375
 31
0.0
  0
LINE
  5
433
330
1E
100
AcDbEntity
  8
LAY0_0
  6
Continuous
 62
     0
100
AcDbLine
 10
85685.6262207031
 20
52651.4709472656
 30
0.0
 11
86099.2614746094
 21
52651.4709472656
 31
0.0
  0
LINE
  5
434
330
1E
100
AcDbEntity
  8
LAY0_0
  6
Continuous
 62
     0
100
AcDbLine
 10
63105.7373046875
 20
59425.5065917969
 30
0.0
 11
63074.5849609375
 21
59196.9970703125
 31
0.0
  0
LINE
  5
435
330
1E
100
AcDbEntity
  8
LAY0_0
  6
Continuous
 62
     0
100
AcDbLine
 10
50586.9781494141
 20
57901.3977050781
 30
0.0
 11
50586.9781494141
 21
57786.8041992188
 31
0.0
  0
LINE
  5
436
330
1E
100
AcDbEntity
  8
LAY0_0
  6
Continuous
 62
     0
100
AcDbLine
 10
50770.01953125
 20
58404.9682617188
 30
0.0
 11
50770.01953125
 21
58884.7717285156
 31
0.0
  0
LINE
  5
437
330
1E
100
AcDbEntity
  8
LAY0_0
  6
Continuous
 62
     0
100
AcDbLine
 10
63290.0268554688
 20
59172.0764160156
 30
0.0
 11
63395.068359375
 21
59283.9782714844
 31
0.0
  0
LINE
  5
438
330
1E
100
AcDbEntity
  8
LAY0_0
  6
Continuous
 62
     0
100
AcDbLine
 10
63395.068359375
 20
59283.9782714844
 30
0.0
 11
63321.1791992188
 21
59400.5920410156
 31
0.0
  0
LINE
  5
439
330
1E
100
AcDbEntity
  8
LAY0_0
  6
Continuous
 62
     0
100
AcDbLine
 10
52123.7548828125
 20
49365.5151367188
 30
0.0
 11
52775.7568359375
 21
49365.5151367188
 31
0.0
  0
LINE
  5
43A
330
1E
100
AcDbEntity
  8
LAY0_0
  6
Continuous
 62
     0
100
AcDbLine
 10
58187.2863769531
 20
52080.3283691406
 30
0.0
 11
57207.12890625
 21
52080.3283691406
 31
0.0
  0
LINE
  5
43B
330
1E
100
AcDbEntity
  8
LAY0_0
  6
Continuous
 62
     0
100
AcDbLine
 10
74355.8837890625
 20
58124.7192382813
 30
0.0
 11
74786.7797851563
 21
58074.8962402344
 31
0.0
  0
LINE
  5
43C
330
1E
100
AcDbEntity
  8
LAY0_0
  6
Continuous
 62
     0
100
AcDbLine
 10
53112.1276855469
 20
55746.7102050781
 30
0.0
 11
53163.8244628906
 21
55794.3298339844
 31
0.0
  0
LINE
  5
43D
330
1E
100
AcDbEntity
  8
LAY0_0
  6
Continuous
 62
     0
100
AcDbLine
 10
53163.6962890625
 20
51841.9494628906
 30
0.0
 11
53163.6962890625
 21
51127.6550292969
 31
0.0
  0
LINE
  5
43E
330
1E
100
AcDbEntity
  8
LAY0_0
  6
Continuous
 62
     0
100
AcDbLine
 10
53163.6962890625
 20
51484.8083496094
 30
0.0
 11
54146.0693359375
 21
51484.8083496094
 31
0.0
  0
LINE
  5
43F
330
1E
100
AcDbEntity
  8
LAY0_0
  6
Continuous
 62
     0
100
AcDbLine
 10
53939.2944335938
 20
55777.0141601563
 30
0.0
 11
53629.1259765625
 21
55777.0141601563
 31
0.0
  0
LINE
  5
440
330
1E
100
AcDbEntity
  8
LAY0_0
  6
Continuous
 62
     0
100
AcDbLine
 10
53048.2543945313
 20
56333.7951660156
 30
0.0
 11
53209.8388671875
 21
56333.7951660156
 31
0.0
  0
LINE
  5
441
330
1E
100
AcDbEntity
  8
LAY0_0
  6
Continuous
 62
     0
100
AcDbLine
 10
77727.5085449219
 20
57626.7883300781
 30
0.0
 11
79365.4541015625
 21
57437.4084472656
 31
0.0
  0
LINE
  5
442
330
1E
100
AcDbEntity
  8
LAY0_0
  6
Continuous
 62
     0
100
AcDbLine
 10
68680.7067871094
 20
58780.908203125
 30
0.0
 11
68649.560546875
 21
58552.3864746094
 31
0.0
  0
LINE
  5
443
330
1E
100
AcDbEntity
  8
LAY0_0
  6
Continuous
 62
     0
100
AcDbLine
 10
62890.283203125
 20
59450.4150390625
 30
0.0
 11
63321.1791992188
 21
59400.5920410156
 31
0.0
  0
LINE
  5
444
330
1E
100
AcDbEntity
  8
LAY0_0
  6
Continuous
 62
     0
100
AcDbLine
 10
74571.337890625
 20
58099.8046875
 30
0.0
 11
74540.185546875
 21
57871.2951660156
 31
0.0
  0
LINE
  5
445
330
1E
100
AcDbEntity
  8
LAY0_0
  6
Continuous
 62
     0
100
AcDbLine
 10
63395.068359375
 20
59283.9782714844
 30
0.0
 11
68362.3596191406
 21
58709.6435546875
 31
0.0
  0
LINE
  5
446
330
1E
100
AcDbEntity
  8
LAY0_0
  6
Continuous
 62
     0
100
AcDbLine
 10
53629.1259765625
 20
55746.7102050781
 30
0.0
 11
53577.4536132813
 21
55794.3298339844
 31
0.0
  0
LINE
  5
447
330
1E
100
AcDbEntity
  8
LAY0_0
  6
Continuous
 62
     0
100
AcDbLine
 10
68362.3596191406
 20
58709.6435546875
 30
0.0
 11
68465.2587890625
 21
58805.8166503906
 31
0.0
  0
LINE
  5
448
330
1E
100
AcDbEntity
  8
LAY0_0
  6
Continuous
 62
     0
100
AcDbLine
 10
77222.7111816406
 20
57793.2434082031
 30
0.0
 11
77653.6193847656
 21
57743.4143066406
 31
0.0
  0
LINE
  5
449
330
1E
100
AcDbEntity
  8
LAY0_0
  6
Continuous
 62
     0
100
AcDbLine
 10
77191.5649414063
 20
57564.7216796875
 30
0.0
 11
77119.8181152344
 21
57697.0642089844
 31
0.0
  0
LINE
  5
44A
330
1E
100
AcDbEntity
  8
LAY0_0
  6
Continuous
 62
     0
100
AcDbLine
 10
68970.0439453125
 20
58639.3676757813
 30
0.0
 11
68896.1547851563
 21
58755.9875488281
 31
0.0
  0
LINE
  5
44B
330
1E
100
AcDbEntity
  8
LAY0_0
  6
Continuous
 62
     0
100
AcDbLine
 10
54242.9809570313
 20
52080.3283691406
 30
0.0
 11
53262.8173828125
 21
52080.3283691406
 31
0.0
  0
LINE
  5
44C
330
1E
100
AcDbEntity
  8
LAY0_0
  6
Continuous
 62
     0
100
AcDbLine
 10
55588.8916015625
 20
52503.8146972656
 30
0.0
 11
55588.8916015625
 21
52789.7705078125
 31
0.0
  0
LINE
  5
44D
330
1E
100
AcDbEntity
  8
LAY0_0
  6
Continuous
 62
     0
100
AcDbLine
 10
59902.3559570313
 20
49689.0686035156
 30
0.0
 11
59735.9619140625
 21
49689.0686035156
 31
0.0
  0
LINE
  5
44E
330
1E
100
AcDbEntity
  8
LAY0_0
  6
Continuous
 62
     0
100
AcDbLine
 10
53752.8930664063
 20
52080.3283691406
 30
0.0
 11
53752.8930664063
 21
52749.1760253906
 31
0.0
  0
LINE
  5
44F
330
1E
100
AcDbEntity
  8
LAY0_0
  6
Continuous
 62
     0
100
AcDbLine
 10
68434.1064453125
 20
58577.294921875
 30
0.0
 11
68865.0024414063
 21
58527.4719238281
 31
0.0
  0
LINE
  5
450
330
1E
100
AcDbEntity
  8
LAY0_0
  6
Continuous
 62
     0
100
AcDbLine
 10
52594.9462890625
 20
53708.8745117188
 30
0.0
 11
53577.3315429688
 21
53708.8745117188
 31
0.0
  0
LINE
  5
451
330
1E
100
AcDbEntity
  8
LAY0_0
  6
Continuous
 62
     0
100
AcDbLine
 10
87860.2233886719
 20
49318.1335449219
 30
0.0
 11
87860.2233886719
 21
49699.3835449219
 31
0.0
  0
LINE
  5
452
330
1E
100
AcDbEntity
  8
LAY0_0
  6
Continuous
 62
     0
100
AcDbLine
 10
56152.392578125
 20
52890.4235839844
 30
0.0
 11
55500.390625
 21
52890.4235839844
 31
0.0
  0
LINE
  5
453
330
1E
100
AcDbEntity
  8
LAY0_0
  6
Continuous
 62
     0
100
AcDbLine
 10
54418.6950683594
 20
54882.4462890625
 30
0.0
 11
53903.4301757813
 21
54882.4462890625
 31
0.0
  0
LINE
  5
454
330
1E
100
AcDbEntity
  8
LAY0_0
  6
Continuous
 62
     0
100
AcDbLine
 10
53903.4301757813
 20
54215.7775878906
 30
0.0
 11
54352.8930664063
 21
54215.7775878906
 31
0.0
  0
LINE
  5
455
330
1E
100
AcDbEntity
  8
LAY0_0
  6
Continuous
 62
     0
100
AcDbLine
 10
53784.1430664063
 20
54882.4462890625
 30
0.0
 11
53784.1430664063
 21
54215.7775878906
 31
0.0
  0
LINE
  5
456
330
1E
100
AcDbEntity
  8
LAY0_0
  6
Continuous
 62
     0
100
AcDbLine
 10
55500.390625
 20
52890.4235839844
 30
0.0
 11
55500.390625
 21
51841.9494628906
 31
0.0
  0
LINE
  5
457
330
1E
100
AcDbEntity
  8
LAY0_0
  6
Continuous
 62
     0
100
AcDbLine
 10
50624.63073730469
 20
57711.4318847656
 30
0.0
 11
50463.04016113281
 21
57711.4318847656
 31
0.0
  0
LINE
  5
458
330
1E
100
AcDbEntity
  8
LAY0_0
  6
Continuous
 62
     0
100
AcDbLine
 10
53172.1862792969
 20
57198.7487792969
 30
0.0
 11
53172.1862792969
 21
57084.1491699219
 31
0.0
  0
LINE
  5
45A
330
1E
100
AcDbEntity
  8
LAY0_0
  6
Continuous
 62
     0
100
AcDbLine
 10
62787.3901367188
 20
59354.2358398438
 30
0.0
 11
62890.283203125
 21
59450.4150390625
 31
0.0
  0
LINE
  5
45B
330
1E
100
AcDbEntity
  8
LAY0_0
  6
Continuous
 62
     0
100
AcDbLine
 10
83514.0502929688
 20
53746.7163085938
 30
0.0
 11
83514.0502929688
 21
52850.8361816406
 31
0.0
  0
LINE
  5
45C
330
1E
100
AcDbEntity
  8
LAY0_0
  6
Continuous
 62
     0
100
AcDbLine
 10
53209.8388671875
 20
57084.1491699219
 30
0.0
 11
53048.2543945313
 21
57084.1491699219
 31
0.0
  0
LINE
  5
45D
330
1E
100
AcDbEntity
  8
LAY0_0
  6
Continuous
 62
     0
100
AcDbLine
 10
53094.4152832031
 20
56333.7951660156
 30
0.0
 11
53094.4152832031
 21
56448.3825683594
 31
0.0
  0
LINE
  5
45E
330
1E
100
AcDbEntity
  8
LAY0_0
  6
Continuous
 62
     0
100
AcDbLine
 10
52880.2124023438
 20
57270.5200195313
 30
0.0
 11
53176.6235351563
 21
57270.5200195313
 31
0.0
  0
LINE
  5
45F
330
1E
100
AcDbEntity
  8
LAY0_0
  6
Continuous
 62
     0
100
AcDbLine
 10
87136.3647460938
 20
49318.1335449219
 30
0.0
 11
87136.3647460938
 21
49699.3835449219
 31
0.0
  0
LINE
  5
460
330
1E
100
AcDbEntity
  8
LAY0_0
  6
Continuous
 62
     0
100
AcDbLine
 10
81463.0493164063
 20
57130.9936523438
 30
0.0
 11
81838.4338378906
 21
57090.1428222656
 31
0.0
  0
LINE
  5
461
330
1E
100
AcDbEntity
  8
LAY0_0
  6
Continuous
 62
     0
100
AcDbLine
 10
89666.85791015631
 20
51067.7734375
 30
0.0
 11
89666.85791015631
 21
51794.3237304688
 31
0.0
  0
LINE
  5
462
330
1E
100
AcDbEntity
  8
LAY0_0
  6
Continuous
 62
     0
100
AcDbLine
 10
62707.5317382813
 20
59363.4765625
 30
0.0
 11
62787.3901367188
 21
59354.2358398438
 31
0.0
  0
LINE
  5
463
330
1E
100
AcDbEntity
  8
LAY0_0
  6
Continuous
 62
     0
100
AcDbLine
 10
62859.130859375
 20
59221.8994140625
 30
0.0
 11
63290.0268554688
 21
59172.0764160156
 31
0.0
  0
LINE
  5
464
330
1E
100
AcDbEntity
  8
LAY0_0
  6
Continuous
 62
     0
100
AcDbLine
 10
51819.384765625
 20
57032.4340820313
 30
0.0
 11
51804.6325683594
 21
56820.6237792969
 31
0.0
  0
LINE
  5
465
330
1E
100
AcDbEntity
  8
LAY0_0
  6
Continuous
 62
     0
100
AcDbLine
 10
52880.2124023438
 20
57460.9985351563
 30
0.0
 11
52880.2124023438
 21
57270.5200195313
 31
0.0
  0
LINE
  5
466
330
1E
100
AcDbEntity
  8
LAY0_0
  6
Continuous
 62
     0
100
AcDbLine
 10
62859.130859375
 20
59221.8994140625
 30
0.0
 11
62787.3901367188
 21
59354.2358398438
 31
0.0
  0
LINE
  5
467
330
1E
100
AcDbEntity
  8
LAY0_0
  6
Continuous
 62
     0
100
AcDbLine
 10
53176.6235351563
 20
57460.9985351563
 30
0.0
 11
53176.6235351563
 21
57270.5200195313
 31
0.0
  0
LINE
  5
468
330
1E
100
AcDbEntity
  8
LAY0_0
  6
Continuous
 62
     0
100
AcDbLine
 10
53176.6235351563
 20
57460.9985351563
 30
0.0
 11
52880.2124023438
 21
57460.9985351563
 31
0.0
  0
LINE
  5
469
330
1E
100
AcDbEntity
  8
LAY0_0
  6
Continuous
 62
     0
100
AcDbLine
 10
84134.5031738281
 20
51067.7734375
 30
0.0
 11
84134.5031738281
 21
51794.3237304688
 31
0.0
  0
LINE
  5
46A
330
1E
100
AcDbEntity
  8
LAY0_0
  6
Continuous
 62
     0
100
AcDbLine
 10
86876.0192871094
 20
49699.3835449219
 30
0.0
 11
86875.5920410156
 21
49699.3835449219
 31
0.0
  0
LINE
  5
46B
330
1E
100
AcDbEntity
  8
LAY0_0
  6
Continuous
 62
     0
100
AcDbLine
 10
74860.6689453125
 20
57958.2763671875
 30
0.0
 11
74786.7797851563
 21
58074.8962402344
 31
0.0
  0
LINE
  5
46C
330
1E
100
AcDbEntity
  8
LAY0_0
  6
Continuous
 62
     0
100
AcDbLine
 10
53577.4536132813
 20
55794.3298339844
 30
0.0
 11
53163.8244628906
 21
55794.3298339844
 31
0.0
  0
LINE
  5
46E
330
1E
100
AcDbEntity
  8
LAY0_0
  6
Continuous
 62
     0
100
AcDbLine
 10
59653.6066037839
 20
54661.94431884045
 30
0.0
 11
59556.9458007813
 21
53351.7395019531
 31
0.0
  0
LINE
  5
46F
330
1E
100
AcDbEntity
  8
LAY0_0
  6
Continuous
 62
     0
100
AcDbLine
 10
53939.2944335938
 20
55413.3728027344
 30
0.0
 11
53939.2944335938
 21
55777.0141601563
 31
0.0
  0
LINE
  5
470
330
1E
100
AcDbEntity
  8
LAY0_0
  6
Continuous
 62
     0
100
AcDbLine
 10
87136.3647460938
 20
49699.3835449219
 30
0.0
 11
86876.0192871094
 21
49699.3835449219
 31
0.0
  0
LINE
  5
471
330
1E
100
AcDbEntity
  8
LAY0_0
  6
Continuous
 62
     0
100
AcDbLine
 10
55128.4545898438
 20
51484.8083496094
 30
0.0
 11
56110.8337402344
 21
51484.8083496094
 31
0.0
  0
LINE
  5
472
330
1E
100
AcDbEntity
  8
LAY0_0
  6
Continuous
 62
     0
100
AcDbLine
 10
54559.7106933594
 20
53708.8745117188
 30
0.0
 11
55542.08984375
 21
53708.8745117188
 31
0.0
  0
LINE
  5
473
330
1E
100
AcDbEntity
  8
LAY0_0
  6
Continuous
 62
     0
100
AcDbLine
 10
59213.0798339844
 20
51841.9494628906
 30
0.0
 11
59213.0798339844
 21
51127.6550292969
 31
0.0
  0
LINE
  5
474
330
1E
100
AcDbEntity
  8
LAY0_0
  6
Continuous
 62
     0
100
AcDbLine
 10
56679.5776367188
 20
53708.8745117188
 30
0.0
 11
59781.8298339844
 21
53708.8745117188
 31
0.0
  0
LINE
  5
476
330
1E
100
AcDbEntity
  8
LAY0_0
  6
CENTER
 62
     0
 48
100.0
100
AcDbLine
 10
57285.9191894531
 20
45990.3381347656
 30
0.0
 11
56847.6257324219
 21
45937.1826171875
 31
0.0
  0
LINE
  5
477
330
1E
100
AcDbEntity
  8
LAY0_0
  6
Continuous
 62
     0
100
AcDbLine
 10
62143.3715820313
 20
49251.4770507813
 30
0.0
 11
80179.60205078128
 21
49251.47705078131
 31
0.0
  0
LINE
  5
478
330
1E
100
AcDbEntity
  8
LAY0_0
  6
Continuous
 62
     0
100
AcDbLine
 10
62143.3715820313
 20
49251.4770507813
 30
0.0
 11
62143.3715820313
 21
48651.4770507813
 31
0.0
  0
LINE
  5
479
330
1E
100
AcDbEntity
  8
LAY0_0
  6
Continuous
 62
     0
100
AcDbLine
 10
80179.6020507813
 20
41226.3793945313
 30
0.0
 11
62143.3715820313
 21
41226.3793945313
 31
0.0
  0
LINE
  5
47A
330
1E
100
AcDbEntity
  8
LAY0_0
  6
Continuous
 62
     0
100
AcDbLine
 10
62143.3715820313
 20
41226.3793945313
 30
0.0
 11
62143.37158203129
 21
40926.42822265629
 31
0.0
  0
LINE
  5
47C
330
1E
100
AcDbEntity
  8
LAY0_0
  6
Continuous
 62
     0
100
AcDbLine
 10
79532.8247070313
 20
48651.4770507813
 30
0.0
 11
79532.8247070313
 21
49251.4770507813
 31
0.0
  0
LINE
  5
47E
330
1E
100
AcDbEntity
  8
LAY0_0
  6
Continuous
 62
     0
100
AcDbLine
 10
91424.79248046881
 20
45937.1826171875
 30
0.0
 11
91424.79248046881
 21
44331.6772460938
 31
0.0
  0
LINE
  5
47F
330
1E
100
AcDbEntity
  8
LAY0_0
  6
Continuous
 62
     0
100
AcDbLine
 10
91424.79248046881
 20
44331.6772460938
 30
0.0
 11
45924.7924804688
 21
44331.67724609379
 31
0.0
  0
LINE
  5
481
330
1E
100
AcDbEntity
  8
LAY0_0
  6
Continuous
 62
     0
100
AcDbLine
 10
92542.0654296875
 20
41726.3793945313
 30
0.0
 11
92542.0654296875
 21
25726.3793945313
 31
0.0
  0
LINE
  5
483
330
1E
100
AcDbEntity
  8
LAY0_0
  6
Continuous
 62
     0
100
AcDbLine
 10
91032.65380859381
 20
41726.3793945313
 30
0.0
 11
93335.33935546881
 21
41726.3793945313
 31
0.0
  0
LINE
  5
484
330
1E
100
AcDbEntity
  8
LAY0_0
  6
Continuous
 62
     0
100
AcDbLine
 10
91584.3017578125
 20
45937.1826171875
 30
0.0
 11
92585.15625
 21
45937.1826171875
 31
0.0
  0
LINE
  5
485
330
1E
100
AcDbEntity
  8
LAY0_0
  6
Continuous
 62
     0
100
AcDbLine
 10
91584.3017578125
 20
48937.1826171875
 30
0.0
 11
92585.15625
 21
48937.1826171875
 31
0.0
  0
LINE
  5
486
330
1E
100
AcDbEntity
  8
LAY0_0
  6
Continuous
 62
     0
100
AcDbLine
 10
92202.23388671881
 20
48937.1826171875
 30
0.0
 11
92202.23388671881
 21
45937.1826171875
 31
0.0
  0
LWPOLYLINE
  5
487
330
1E
100
AcDbEntity
  8
LAY0_0
  6
Continuous
 62
     0
100
AcDbPolyline
 90
        2
 70
     0
 43
0.0
 10
45591.42761230469
 20
47556.2316894531
 10
45643.13659667969
 20
47556.2316894531
  0
LWPOLYLINE
  5
48B
330
1E
100
AcDbEntity
  8
LAY0_0
  6
Continuous
 62
     0
100
AcDbPolyline
 90
        2
 70
     0
 43
0.0
 10
89749.57885742189
 20
55841.943359375
 10
89770.25756835939
 20
55841.943359375
  0
LWPOLYLINE
  5
497
330
1E
100
AcDbEntity
  8
LAY0_0
  6
Continuous
 62
     0
100
AcDbPolyline
 90
        2
 70
     0
 43
0.0
 10
51664.2761230469
 20
60222.8942871094
 10
51715.9729003906
 20
60222.8942871094
  0
LWPOLYLINE
  5
49B
330
1E
100
AcDbEntity
  8
LAY0_0
  6
Continuous
 62
     0
100
AcDbPolyline
 90
        2
 70
     0
 43
0.0
 10
53263.91582576094
 20
60274.93735737333
 10
53887.5549316406
 20
60080.0537109375
  0
LWPOLYLINE
  5
4A3
330
1E
100
AcDbEntity
  8
LAY0_0
  6
Continuous
 62
     0
100
AcDbPolyline
 90
        2
 70
     0
 43
0.0
 10
48665.4357910156
 20
48937.1826171875
 10
48665.4357910156
 20
48889.5690917969
  0
LWPOLYLINE
  5
4A7
330
1E
100
AcDbEntity
  8
LAY0_0
  6
Continuous
 62
     0
100
AcDbPolyline
 90
        2
 70
     0
 43
0.0
 10
82583.3618164063
 20
51794.3237304688
 10
82635.0708007813
 20
51794.3237304688
  0
LWPOLYLINE
  5
4AB
330
1E
100
AcDbEntity
  8
LAY0_0
  6
Continuous
 62
     0
100
AcDbPolyline
 90
        2
 70
     0
 43
0.0
 10
58696.0388183594
 20
49889.5629882813
 10
58696.0388183594
 20
49841.943359375
  0
LWPOLYLINE
  5
4AF
330
1E
100
AcDbEntity
  8
LAY0_0
  6
Continuous
 62
     0
100
AcDbPolyline
 90
        2
 70
     0
 43
0.0
 10
85789.0319824219
 20
50937.1887207031
 10
85789.0319824219
 20
50889.5629882813
  0
LWPOLYLINE
  5
4B7
330
1E
100
AcDbEntity
  8
LAY0_0
  6
Continuous
 62
     0
100
AcDbPolyline
 90
        2
 70
     0
 43
0.0
 10
53008.5815429688
 20
55222.8942871094
 10
53008.5815429688
 20
55080.0415039063
  0
LWPOLYLINE
  5
4BB
330
1E
100
AcDbEntity
  8
LAY0_0
  6
Continuous
 62
     0
100
AcDbPolyline
 90
        2
 70
     0
 43
0.0
 10
53784.1430664063
 20
55127.6611328125
 10
53784.1430664063
 20
55080.0415039063
  0
LWPOLYLINE
  5
4BF
330
1E
100
AcDbEntity
  8
LAY0_0
  6
Continuous
 62
     0
100
AcDbPolyline
 90
        2
 70
     0
 43
0.0
 10
86719.7021484375
 20
51508.6120605469
 10
86719.7021484375
 20
51460.9985351563
  0
LWPOLYLINE
  5
4C7
330
1E
100
AcDbEntity
  8
LAY0_0
  6
Continuous
 62
     0
100
AcDbPolyline
 90
        2
 70
     0
 43
0.0
 10
45821.6979980469
 20
48984.8022460938
 10
45925.1037597656
 20
48889.5690917969
  0
LWPOLYLINE
  5
4CB
330
1E
100
AcDbEntity
  8
LAY0_0
  6
Continuous
 62
     0
100
AcDbPolyline
 90
        2
 70
     0
 43
0.0
 10
59626.7150878906
 20
51127.6550292969
 10
59678.41796875
 20
51127.6550292969
  0
LWPOLYLINE
  5
4CF
330
1E
100
AcDbEntity
  8
LAY0_0
  6
Continuous
 62
     0
100
AcDbPolyline
 90
        2
 70
     0
 43
0.0
 10
84910.05859375
 20
51794.3237304688
 10
84961.767578125
 20
51794.3237304688
  0
LWPOLYLINE
  5
4D3
330
1E
100
AcDbEntity
  8
LAY0_0
  6
Continuous
 62
     0
100
AcDbPolyline
 90
        2
 70
     0
 43
0.0
 10
56627.8686523438
 20
51127.6550292969
 10
56679.5776367188
 20
51127.6550292969
  0
LWPOLYLINE
  5
4D7
330
1E
100
AcDbEntity
  8
LAY0_0
  6
Continuous
 62
     0
100
AcDbPolyline
 90
        2
 70
     0
 43
0.0
 10
87960.6079101563
 20
51508.6120605469
 10
87960.6079101563
 20
51460.9985351563
  0
LWPOLYLINE
  5
4DB
330
1E
100
AcDbEntity
  8
LAY0_0
  6
Continuous
 62
     0
100
AcDbPolyline
 90
        2
 70
     0
 43
0.0
 10
85789.0319824219
 20
51794.3237304688
 10
85840.7348632813
 20
51794.3237304688
  0
LWPOLYLINE
  5
4DF
330
1E
100
AcDbEntity
  8
LAY0_0
  6
Continuous
 62
     0
100
AcDbPolyline
 90
        2
 70
     0
 43
0.0
 10
90700.93994140631
 20
51222.900390625
 10
90700.93994140631
 20
51175.2807617188
  0
LWPOLYLINE
  5
4E3
330
1E
100
AcDbEntity
  8
LAY0_0
  6
Continuous
 62
     0
100
AcDbPolyline
 90
        2
 70
     0
 43
0.0
 10
84134.5031738281
 20
51841.9494628906
 10
84134.5031738281
 20
51794.3237304688
  0
LWPOLYLINE
  5
4E7
330
1E
100
AcDbEntity
  8
LAY0_0
  6
Continuous
 62
     0
100
AcDbPolyline
 90
        2
 70
     0
 43
0.0
 10
86150.9643554688
 20
51794.3237304688
 10
86616.3024902344
 20
51794.3237304688
  0
LWPOLYLINE
  5
4EB
330
1E
100
AcDbEntity
  8
LAY0_0
  6
Continuous
 62
     0
100
AcDbPolyline
 90
        2
 70
     0
 43
0.0
 10
57713.6596679688
 20
51127.6550292969
 10
57920.4772949219
 20
51127.6550292969
  0
LWPOLYLINE
  5
4EF
330
1E
100
AcDbEntity
  8
LAY0_0
  6
Continuous
 62
     0
100
AcDbPolyline
 90
        2
 70
     0
 43
0.0
 10
57661.962890625
 20
51127.6550292969
 10
57713.6596679688
 20
51127.6550292969
  0
LWPOLYLINE
  5
4F7
330
1E
100
AcDbEntity
  8
LAY0_0
  6
Continuous
 62
     0
100
AcDbPolyline
 90
        2
 70
     0
 43
0.0
 10
48665.4357910156
 20
48889.5690917969
 10
48717.1325683594
 20
48889.5690917969
  0
LWPOLYLINE
  5
4FB
330
1E
100
AcDbEntity
  8
LAY0_0
  6
Continuous
 62
     0
100
AcDbPolyline
 90
        2
 70
     0
 43
0.0
 10
86047.5524902344
 20
51794.3237304688
 10
86099.2614746094
 20
51794.3237304688
  0
LWPOLYLINE
  5
503
330
1E
100
AcDbEntity
  8
LAY0_0
  6
Continuous
 62
     0
100
AcDbPolyline
 90
        2
 70
     0
 43
0.0
 10
91217.97485351561
 20
51127.6550292969
 10
91269.677734375
 20
51080.0415039063
  0
LWPOLYLINE
  5
507
330
1E
100
AcDbEntity
  8
LAY0_0
  6
Continuous
 62
     0
100
AcDbPolyline
 90
        2
 70
     0
 43
0.0
 10
53008.5815429688
 20
55032.4279785156
 10
53008.5815429688
 20
54984.8083496094
  0
LWPOLYLINE
  5
50F
330
1E
100
AcDbEntity
  8
LAY0_0
  6
Continuous
 62
     0
100
AcDbPolyline
 90
        2
 70
     0
 43
0.0
 10
85789.0319824219
 20
51460.9985351563
 10
85789.0319824219
 20
51413.3728027344
  0
LWPOLYLINE
  5
513
330
1E
100
AcDbEntity
  8
LAY0_0
  6
Continuous
 62
     0
100
AcDbPolyline
 90
        2
 70
     0
 43
0.0
 10
48768.8415527344
 20
52175.2807617188
 10
48820.5383300781
 20
52175.2807617188
  0
LWPOLYLINE
  5
517
330
1E
100
AcDbEntity
  8
LAY0_0
  6
Continuous
 62
     0
100
AcDbPolyline
 90
        2
 70
     0
 43
0.0
 10
85789.0319824219
 20
51746.7102050781
 10
85789.0319824219
 20
51460.9985351563
  0
LWPOLYLINE
  5
51F
330
1E
100
AcDbEntity
  8
LAY0_0
  6
Continuous
 62
     0
100
AcDbPolyline
 90
        2
 70
     0
 43
0.0
 10
88322.54638671881
 20
54127.6672363281
 10
88374.2431640625
 20
54127.6672363281
  0
LWPOLYLINE
  5
523
330
1E
100
AcDbEntity
  8
LAY0_0
  6
Continuous
 62
     0
100
AcDbPolyline
 90
        2
 70
     0
 43
0.0
 10
82479.9682617188
 20
52699.0966796875
 10
82479.9682617188
 20
52651.4709472656
  0
LWPOLYLINE
  5
534
330
1E
100
AcDbEntity
  8
LAY0_0
  6
Continuous
 62
     0
100
AcDbPolyline
 90
        2
 70
     0
 43
0.0
 10
90959.45434570311
 20
51127.6550292969
 10
91166.27197265631
 20
51127.6550292969
  0
LWPOLYLINE
  5
53C
330
1E
100
AcDbEntity
  8
LAY0_0
  6
Continuous
 62
     0
100
AcDbPolyline
 90
        2
 70
     0
 43
0.0
 10
88374.2431640625
 20
54127.6672363281
 10
88374.2431640625
 20
54080.0415039063
  0
LWPOLYLINE
  5
540
330
1E
100
AcDbEntity
  8
LAY0_0
  6
Continuous
 62
     0
100
AcDbPolyline
 90
        2
 70
     0
 43
0.0
 10
90752.63671875
 20
51127.6550292969
 10
90804.345703125
 20
51127.6550292969
  0
LWPOLYLINE
  5
544
330
1E
100
AcDbEntity
  8
LAY0_0
  6
Continuous
 62
     0
100
AcDbPolyline
 90
        2
 70
     0
 43
0.0
 10
84031.0913085938
 20
53127.6550292969
 10
84031.0913085938
 20
53080.0354003906
  0
LWPOLYLINE
  5
548
330
1E
100
AcDbEntity
  8
LAY0_0
  6
Continuous
 62
     0
100
AcDbPolyline
 90
        2
 70
     0
 43
0.0
 10
51974.5056152344
 20
57270.5200195313
 10
51974.5056152344
 20
57222.900390625
  0
LWPOLYLINE
  5
54C
330
1E
100
AcDbEntity
  8
LAY0_0
  6
Continuous
 62
     0
100
AcDbPolyline
 90
        2
 70
     0
 43
0.0
 10
51612.5671386719
 20
53460.9985351563
 10
51612.5671386719
 20
53413.37890625
  0
LWPOLYLINE
  5
550
330
1E
100
AcDbEntity
  8
LAY0_0
  6
Continuous
 62
     0
100
AcDbPolyline
 90
        2
 70
     0
 43
0.0
 10
85789.0319824219
 20
50699.0905761719
 10
85840.7348632813
 20
50699.0905761719
  0
LWPOLYLINE
  5
558
330
1E
100
AcDbEntity
  8
LAY0_0
  6
Continuous
 62
     0
100
AcDbPolyline
 90
        2
 70
     0
 43
0.0
 10
90804.345703125
 20
51127.6550292969
 10
90856.04248046881
 20
51127.6550292969
  0
LWPOLYLINE
  5
564
330
1E
100
AcDbEntity
  8
LAY0_0
  6
Continuous
 62
     0
100
AcDbPolyline
 90
        2
 70
     0
 43
0.0
 10
49647.80578613281
 20
53794.3237304688
 10
49647.80578613281
 20
53746.7163085938
  0
LWPOLYLINE
  5
568
330
1E
100
AcDbEntity
  8
LAY0_0
  6
Continuous
 62
     0
100
AcDbPolyline
 90
        2
 70
     0
 43
0.0
 10
45718.2922363281
 20
48699.0905761719
 10
45821.6979980469
 20
48651.4770507813
  0
LWPOLYLINE
  5
56C
330
1E
100
AcDbEntity
  8
LAY0_0
  6
Continuous
 62
     0
100
AcDbPolyline
 90
        2
 70
     0
 43
0.0
 10
49647.80578613281
 20
53841.9494628906
 10
49647.80578613281
 20
53794.3237304688
  0
LWPOLYLINE
  5
574
330
1E
100
AcDbEntity
  8
LAY0_0
  6
Continuous
 62
     0
100
AcDbPolyline
 90
        2
 70
     0
 43
0.0
 10
45925.1037597656
 20
48841.943359375
 10
45821.6979980469
 20
48651.4770507813
  0
LWPOLYLINE
  5
578
330
1E
100
AcDbEntity
  8
LAY0_0
  6
Continuous
 62
     0
100
AcDbPolyline
 90
        2
 70
     0
 43
0.0
 10
88322.54638671881
 20
53413.37890625
 10
88374.2431640625
 20
53413.37890625
  0
LWPOLYLINE
  5
57C
330
1E
100
AcDbEntity
  8
LAY0_0
  6
Continuous
 62
     0
100
AcDbPolyline
 90
        2
 70
     0
 43
0.0
 10
85840.7348632813
 20
51794.3237304688
 10
86047.5524902344
 20
51794.3237304688
  0
LWPOLYLINE
  5
580
330
1E
100
AcDbEntity
  8
LAY0_0
  6
Continuous
 62
     0
100
AcDbPolyline
 90
        2
 70
     0
 43
0.0
 10
86719.7021484375
 20
51175.2807617188
 10
86719.7021484375
 20
51127.6550292969
  0
LWPOLYLINE
  5
588
330
1E
100
AcDbEntity
  8
LAY0_0
  6
Continuous
 62
     0
100
AcDbPolyline
 90
        2
 70
     0
 43
0.0
 10
86150.9643554688
 20
53460.9985351563
 10
86150.9643554688
 20
53413.37890625
  0
LWPOLYLINE
  5
58C
330
1E
100
AcDbEntity
  8
LAY0_0
  6
Continuous
 62
     0
100
AcDbPolyline
 90
        2
 70
     0
 43
0.0
 10
48820.5383300781
 20
52222.900390625
 10
48820.5383300781
 20
52175.2807617188
  0
LWPOLYLINE
  5
590
330
1E
100
AcDbEntity
  8
LAY0_0
  6
Continuous
 62
     0
100
AcDbPolyline
 90
        2
 70
     0
 43
0.0
 10
88059.67407226561
 20
35473.5595703125
 10
88059.1796875
 20
35423.2299804688
  0
LWPOLYLINE
  5
594
330
1E
100
AcDbEntity
  8
LAY0_0
  6
Continuous
 62
     0
100
AcDbPolyline
 90
        2
 70
     0
 43
0.0
 10
88007.96508789061
 20
35474.0356445313
 10
88059.67407226561
 20
35473.5595703125
  0
LWPOLYLINE
  5
59C
330
1E
100
AcDbEntity
  8
LAY0_0
  6
Continuous
 62
     0
100
AcDbPolyline
 90
        2
 70
     0
 43
0.0
 10
60026.9287109375
 20
29391.50390625
 10
60026.4404296875
 20
29341.162109375
  0
LWPOLYLINE
  5
5A0
330
1E
100
AcDbEntity
  8
LAY0_0
  6
Continuous
 62
     0
100
AcDbPolyline
 90
        2
 70
     0
 43
0.0
 10
59086.9384765625
 20
33728.8330078125
 10
59086.83279814918
 20
33718.07468440185
  0
LWPOLYLINE
  5
5A4
330
1E
100
AcDbEntity
  8
LAY0_0
  6
Continuous
 62
     0
100
AcDbPolyline
 90
        2
 70
     0
 43
0.0
 10
60026.9287109375
 20
39038.9404296875
 10
60026.4404296875
 20
38988.5986328125
  0
LWPOLYLINE
  5
5A8
330
1E
100
AcDbEntity
  8
LAY0_0
  6
Continuous
 62
     0
100
AcDbPolyline
 90
        2
 70
     0
 43
0.0
 10
56067.919921875
 20
52789.5324707031
 10
56067.919921875
 20
52741.9128417969
  0
LWPOLYLINE
  5
5B0
330
1E
100
AcDbEntity
  8
LAY0_0
  6
Continuous
 62
     0
100
AcDbPolyline
 90
        2
 70
     0
 43
0.0
 10
81297.0642089844
 20
26023.3276367188
 10
81296.5698242188
 20
25973.0041503906
  0
LWPOLYLINE
  5
5B4
330
1E
100
AcDbEntity
  8
LAY0_0
  6
Continuous
 62
     0
100
AcDbPolyline
 90
        2
 70
     0
 43
0.0
 10
83203.8208007813
 20
51365.7592773438
 10
83203.8208007813
 20
51127.6550292969
  0
LWPOLYLINE
  5
5B8
330
1E
100
AcDbEntity
  8
LAY0_0
  6
Continuous
 62
     0
100
AcDbPolyline
 90
        2
 70
     0
 43
0.0
 10
48820.5383300781
 20
53222.8942871094
 10
48820.5383300781
 20
53175.2807617188
  0
LWPOLYLINE
  5
5C4
330
1E
100
AcDbEntity
  8
LAY0_0
  6
Continuous
 62
     0
100
AcDbPolyline
 90
        3
 70
     0
 43
0.0
 10
45821.6979980469
 20
48651.4770507813
 10
45873.4069824219
 20
48556.2255859375
 10
45821.6979980469
 20
48508.6181640625
  0
LWPOLYLINE
  5
5CD
330
1E
100
AcDbEntity
  8
LAY0_0
  6
Continuous
 62
     0
100
AcDbPolyline
 90
        2
 70
     0
 43
0.0
 10
85789.0319824219
 20
49222.9064941406
 10
85789.0319824219
 20
49175.2868652344
  0
LWPOLYLINE
  5
5D1
330
1E
100
AcDbEntity
  8
LAY0_0
  6
Continuous
 62
     0
100
AcDbPolyline
 90
        2
 70
     0
 43
0.0
 10
84082.7880859375
 20
51794.3237304688
 10
84134.5031738281
 20
51794.3237304688
  0
LWPOLYLINE
  5
5D5
330
1E
100
AcDbEntity
  8
LAY0_0
  6
Continuous
 62
     0
100
AcDbPolyline
 90
        2
 70
     0
 43
0.0
 10
47217.7154541016
 20
48889.5690917969
 10
47269.4183349609
 20
48889.5690917969
  0
LWPOLYLINE
  5
5D9
330
1E
100
AcDbEntity
  8
LAY0_0
  6
Continuous
 62
     0
100
AcDbPolyline
 90
        2
 70
     0
 43
0.0
 10
59109.6740722656
 20
51127.6550292969
 10
59161.376953125
 20
51127.6550292969
  0
LWPOLYLINE
  5
5DD
330
1E
100
AcDbEntity
  8
LAY0_0
  6
Continuous
 62
     0
100
AcDbPolyline
 90
        2
 70
     0
 43
0.0
 10
85789.0319824219
 20
51413.3728027344
 10
85789.0319824219
 20
51365.7592773438
  0
LWPOLYLINE
  5
5E1
330
1E
100
AcDbEntity
  8
LAY0_0
  6
Continuous
 62
     0
100
AcDbPolyline
 90
        2
 70
     0
 43
0.0
 10
85272.0031738281
 20
51794.3237304688
 10
85323.6938476563
 20
51794.3237304688
  0
LWPOLYLINE
  5
5E5
330
1E
100
AcDbEntity
  8
LAY0_0
  6
Continuous
 62
     0
100
AcDbPolyline
 90
        2
 70
     0
 43
0.0
 10
84186.1938476563
 20
51794.3237304688
 10
84858.3618164063
 20
51794.3237304688
  0
LWPOLYLINE
  5
5E9
330
1E
100
AcDbEntity
  8
LAY0_0
  6
Continuous
 62
     0
100
AcDbPolyline
 90
        2
 70
     0
 43
0.0
 10
89873.6572265625
 20
51175.2807617188
 10
89873.6572265625
 20
51127.6550292969
  0
LWPOLYLINE
  5
5ED
330
1E
100
AcDbEntity
  8
LAY0_0
  6
Continuous
 62
     0
100
AcDbPolyline
 90
        2
 70
     0
 43
0.0
 10
85789.0319824219
 20
49270.5200195313
 10
85789.0319824219
 20
49222.9064941406
  0
LWPOLYLINE
  5
5F1
330
1E
100
AcDbEntity
  8
LAY0_0
  6
Continuous
 62
     0
100
AcDbPolyline
 90
        2
 70
     0
 43
0.0
 10
50630.1879882813
 20
53413.37890625
 10
50630.1879882813
 20
53365.7592773438
  0
LWPOLYLINE
  5
5F5
330
1E
100
AcDbEntity
  8
LAY0_0
  6
Continuous
 62
     0
100
AcDbPolyline
 90
        2
 70
     0
 43
0.0
 10
47993.2708740234
 20
48937.1826171875
 10
47993.2708740234
 20
48889.5690917969
  0
LWPOLYLINE
  5
5F9
330
1E
100
AcDbEntity
  8
LAY0_0
  6
Continuous
 62
     0
100
AcDbPolyline
 90
        2
 70
     0
 43
0.0
 10
86099.2614746094
 20
53413.37890625
 10
86150.9643554688
 20
53413.37890625
  0
LWPOLYLINE
  5
5FD
330
1E
100
AcDbEntity
  8
LAY0_0
  6
Continuous
 62
     0
100
AcDbPolyline
 90
        5
 70
     0
 43
0.0
 10
45821.6979980469
 20
48984.8022460938
 10
45304.6569824219
 20
49318.1335449219
 10
45201.24816894531
 20
49222.9064941406
 10
45201.24816894531
 20
49127.6611328125
 10
45718.2922363281
 20
48699.0905761719
  0
LWPOLYLINE
  5
604
330
1E
100
AcDbEntity
  8
LAY0_0
  6
Continuous
 62
     0
100
AcDbPolyline
 90
        2
 70
     0
 43
0.0
 10
45925.1037597656
 20
48889.5690917969
 10
45925.1037597656
 20
48841.943359375
  0
LWPOLYLINE
  5
610
330
1E
100
AcDbEntity
  8
LAY0_0
  6
Continuous
 62
     0
100
AcDbPolyline
 90
        2
 70
     0
 43
0.0
 10
85789.0319824219
 20
50889.5629882813
 10
85789.0319824219
 20
50841.9372558594
  0
LWPOLYLINE
  5
614
330
1E
100
AcDbEntity
  8
LAY0_0
  6
Continuous
 62
     0
100
AcDbPolyline
 90
        2
 70
     0
 43
0.0
 10
85685.6262207031
 20
49318.1335449219
 10
85737.3352050781
 20
49318.1335449219
  0
LWPOLYLINE
  5
618
330
1E
100
AcDbEntity
  8
LAY0_0
  6
Continuous
 62
     0
100
AcDbPolyline
 90
        2
 70
     0
 43
0.0
 10
63142.6025390625
 20
48651.4770507813
 10
63194.3054199219
 20
48651.4770507813
  0
LWPOLYLINE
  5
61C
330
1E
100
AcDbEntity
  8
LAY0_0
  6
Continuous
 62
     0
100
AcDbPolyline
 90
        2
 70
     0
 43
0.0
 10
87857.2021484375
 20
53413.37890625
 10
87908.9050292969
 20
53413.37890625
  0
LWPOLYLINE
  5
620
330
1E
100
AcDbEntity
  8
LAY0_0
  6
Continuous
 62
     0
100
AcDbPolyline
 90
        2
 70
     0
 43
0.0
 10
56016.2231445313
 20
52503.8146972656
 10
56067.919921875
 20
52503.8146972656
  0
LWPOLYLINE
  5
624
330
1E
100
AcDbEntity
  8
LAY0_0
  6
Continuous
 62
     0
100
AcDbPolyline
 90
        2
 70
     0
 43
0.0
 10
51095.5261230469
 20
60413.3728027344
 10
50681.8939208984
 20
60080.0537109375
  0
LWPOLYLINE
  5
628
330
1E
100
AcDbEntity
  8
LAY0_0
  6
Continuous
 62
     0
100
AcDbPolyline
 90
        2
 70
     0
 43
0.0
 10
84134.5031738281
 20
51794.3237304688
 10
84186.1938476563
 20
51794.3237304688
  0
LWPOLYLINE
  5
62C
330
1E
100
AcDbEntity
  8
LAY0_0
  6
Continuous
 62
     0
100
AcDbPolyline
 90
        2
 70
     0
 43
0.0
 10
86616.3024902344
 20
51794.3237304688
 10
86667.9931640625
 20
51794.3237304688
  0
LWPOLYLINE
  5
638
330
1E
100
AcDbEntity
  8
LAY0_0
  6
Continuous
 62
     0
100
AcDbPolyline
 90
        2
 70
     0
 43
0.0
 10
51664.2761230469
 20
58413.37890625
 10
51664.2761230469
 20
58365.7531738281
  0
LWPOLYLINE
  5
63C
330
1E
100
AcDbEntity
  8
LAY0_0
  6
Continuous
 62
     0
100
AcDbPolyline
 90
        2
 70
     0
 43
0.0
 10
84910.05859375
 20
52699.0966796875
 10
84910.05859375
 20
51841.9494628906
  0
LWPOLYLINE
  5
641
330
1E
100
AcDbEntity
  8
LAY0_0
  6
Continuous
 62
     0
100
AcDbPolyline
 90
        2
 70
     0
 43
0.0
 10
52233.0200195313
 20
59937.1887207031
 10
53649.35259880307
 20
59556.2316894531
  0
LWPOLYLINE
  5
645
330
1E
100
AcDbEntity
  8
LAY0_0
  6
Continuous
 62
     0
100
AcDbPolyline
 90
        2
 70
     0
 43
0.0
 10
51922.7905273438
 20
60603.857421875
 10
51922.7905273438
 20
60556.2316894531
  0
LWPOLYLINE
  5
64D
330
1E
100
AcDbEntity
  8
LAY0_0
  6
Continuous
 62
     0
100
AcDbPolyline
 90
        2
 70
     0
 43
0.0
 10
85789.0319824219
 20
51794.3237304688
 10
85789.0319824219
 20
51746.7102050781
  0
LWPOLYLINE
  5
651
330
1E
100
AcDbEntity
  8
LAY0_0
  6
Continuous
 62
     0
100
AcDbPolyline
 90
        3
 70
     0
 43
0.0
 10
54559.7106933594
 20
54270.5200195313
 10
54508.0017089844
 20
54222.900390625
 10
54456.298828125
 20
54270.5200195313
  0
LWPOLYLINE
  5
65E
330
1E
100
AcDbEntity
  8
LAY0_0
  6
Continuous
 62
     0
100
AcDbPolyline
 90
        2
 70
     0
 43
0.0
 10
82479.9682617188
 20
51841.9494628906
 10
82531.6772460938
 20
51841.9494628906
  0
LWPOLYLINE
  5
662
330
1E
100
AcDbEntity
  8
LAY0_0
  6
Continuous
 62
     0
100
AcDbPolyline
 90
        2
 70
     0
 43
0.0
 10
84910.05859375
 20
51841.9494628906
 10
84910.05859375
 20
51794.3237304688
  0
LWPOLYLINE
  5
666
330
1E
100
AcDbEntity
  8
LAY0_0
  6
Continuous
 62
     0
100
AcDbPolyline
 90
        2
 70
     0
 43
0.0
 10
84134.5031738281
 20
51794.3237304688
 10
84134.5031738281
 20
51746.7102050781
  0
LWPOLYLINE
  5
66A
330
1E
100
AcDbEntity
  8
LAY0_0
  6
Continuous
 62
     0
100
AcDbPolyline
 90
        2
 70
     0
 43
0.0
 10
82479.9682617188
 20
51841.9494628906
 10
81807.8125
 20
51794.3237304688
  0
LWPOLYLINE
  5
672
330
1E
100
AcDbEntity
  8
LAY0_0
  6
Continuous
 62
     0
100
AcDbPolyline
 90
        2
 70
     0
 43
0.0
 10
86099.2614746094
 20
51794.3237304688
 10
86150.9643554688
 20
51794.3237304688
  0
LWPOLYLINE
  5
676
330
1E
100
AcDbEntity
  8
LAY0_0
  6
Continuous
 62
     0
100
AcDbPolyline
 90
        2
 70
     0
 43
0.0
 10
49544.40612792969
 20
54984.8083496094
 10
49544.40612792969
 20
54413.3728027344
  0
LWPOLYLINE
  5
67A
330
1E
100
AcDbEntity
  8
LAY0_0
  6
Continuous
 62
     0
100
AcDbPolyline
 90
        2
 70
     0
 43
0.0
 10
54559.7106933594
 20
54841.943359375
 10
54508.0017089844
 20
54794.3237304688
  0
LWPOLYLINE
  5
682
330
1E
100
AcDbEntity
  8
LAY0_0
  6
Continuous
 62
     0
100
AcDbPolyline
 90
        2
 70
     0
 43
0.0
 10
59213.0798339844
 20
51603.8513183594
 10
59213.0798339844
 20
51556.2316894531
  0
LWPOLYLINE
  5
686
330
1E
100
AcDbEntity
  8
LAY0_0
  6
Continuous
 62
     0
100
AcDbPolyline
 90
        2
 70
     0
 43
0.0
 10
84858.3618164063
 20
51794.3237304688
 10
84910.05859375
 20
51794.3237304688
  0
LWPOLYLINE
  5
68A
330
1E
100
AcDbEntity
  8
LAY0_0
  6
Continuous
 62
     0
100
AcDbPolyline
 90
        2
 70
     0
 43
0.0
 10
53008.5815429688
 20
55270.5200195313
 10
53008.5815429688
 20
55222.8942871094
  0
LWPOLYLINE
  5
68E
330
1E
100
AcDbEntity
  8
LAY0_0
  6
Continuous
 62
     0
100
AcDbPolyline
 90
        2
 70
     0
 43
0.0
 10
85737.3352050781
 20
50699.0905761719
 10
85789.0319824219
 20
50699.0905761719
  0
LWPOLYLINE
  5
692
330
1E
100
AcDbEntity
  8
LAY0_0
  6
Continuous
 62
     0
100
AcDbPolyline
 90
        2
 70
     0
 43
0.0
 10
85789.0319824219
 20
51032.4157714844
 10
85789.0319824219
 20
50937.1887207031
  0
LWPOLYLINE
  5
696
330
1E
100
AcDbEntity
  8
LAY0_0
  6
Continuous
 62
     0
100
AcDbPolyline
 90
        2
 70
     0
 43
0.0
 10
90907.75146484381
 20
51127.6550292969
 10
90959.45434570311
 20
51127.6550292969
  0
LWPOLYLINE
  5
69A
330
1E
100
AcDbEntity
  8
LAY0_0
  6
Continuous
 62
     0
100
AcDbPolyline
 90
        2
 70
     0
 43
0.0
 10
52233.0200195313
 20
59937.1887207031
 10
52181.3171386719
 20
59746.7102050781
  0
LWPOLYLINE
  5
69E
330
1E
100
AcDbEntity
  8
LAY0_0
  6
Continuous
 62
     0
100
AcDbPolyline
 90
        3
 70
     0
 43
0.0
 10
51664.2761230469
 20
60222.8942871094
 10
51566.0339355469
 20
60208.6181640625
 10
50888.7084960938
 20
59937.1887207031
  0
LWPOLYLINE
  5
6A3
330
1E
100
AcDbEntity
  8
LAY0_0
  6
Continuous
 62
     0
100
AcDbPolyline
 90
        2
 70
     0
 43
0.0
 10
56067.919921875
 20
52741.9128417969
 10
56067.919921875
 20
52551.4282226563
  0
LWPOLYLINE
  5
6A7
330
1E
100
AcDbEntity
  8
LAY0_0
  6
Continuous
 62
     0
100
AcDbPolyline
 90
        2
 70
     0
 43
0.0
 10
90856.04248046881
 20
51127.6550292969
 10
90907.75146484381
 20
51127.6550292969
  0
LWPOLYLINE
  5
6AB
330
1E
100
AcDbEntity
  8
LAY0_0
  6
Continuous
 62
     0
100
AcDbPolyline
 90
        2
 70
     0
 43
0.0
 10
57661.962890625
 20
53508.6181640625
 10
57661.962890625
 20
53460.9985351563
  0
LWPOLYLINE
  5
6AF
330
1E
100
AcDbEntity
  8
LAY0_0
  6
Continuous
 62
     0
100
AcDbPolyline
 90
        2
 70
     0
 43
0.0
 10
54663.1164550781
 20
50603.8513183594
 10
54714.8193359375
 20
50603.8513183594
  0
LWPOLYLINE
  5
6B3
330
1E
100
AcDbEntity
  8
LAY0_0
  6
Continuous
 62
     0
100
AcDbPolyline
 90
        2
 70
     0
 43
0.0
 10
83100.4150390625
 20
51794.3237304688
 10
83152.1118164063
 20
51794.3237304688
  0
LWPOLYLINE
  5
6B7
330
1E
100
AcDbEntity
  8
LAY0_0
  6
Continuous
 62
     0
100
AcDbPolyline
 90
        2
 70
     0
 43
0.0
 10
85840.7348632813
 20
50699.0905761719
 10
86667.9931640625
 20
50699.0905761719
  0
LWPOLYLINE
  5
6BB
330
1E
100
AcDbEntity
  8
LAY0_0
  6
Continuous
 62
     0
100
AcDbPolyline
 90
        2
 70
     0
 43
0.0
 10
56067.919921875
 20
52551.4282226563
 10
56067.919921875
 20
52503.8146972656
  0
LWPOLYLINE
  5
6BF
330
1E
100
AcDbEntity
  8
LAY0_0
  6
Continuous
 62
     0
100
AcDbPolyline
 90
        2
 70
     0
 43
0.0
 10
50681.8939208984
 20
60080.0537109375
 10
50888.7084960938
 20
59937.1887207031
  0
LWPOLYLINE
  5
6C7
330
1E
100
AcDbEntity
  8
LAY0_0
  6
Continuous
 62
     0
100
AcDbPolyline
 90
        2
 70
     0
 43
0.0
 10
90080.47485351561
 20
55413.3728027344
 10
90132.18994140631
 20
55413.3728027344
  0
LWPOLYLINE
  5
6CB
330
1E
100
AcDbEntity
  8
LAY0_0
  6
Continuous
 62
     0
100
AcDbPolyline
 90
        2
 70
     0
 43
0.0
 10
51819.384765625
 20
60127.6550292969
 10
52233.0200195313
 20
59937.1887207031
  0
LWPOLYLINE
  5
6CF
330
1E
100
AcDbEntity
  8
LAY0_0
  6
Continuous
 62
     0
100
AcDbPolyline
 90
        2
 70
     0
 43
0.0
 10
50526.7822265625
 20
59746.7102050781
 10
50578.4851074219
 20
59651.46484375
  0
LWPOLYLINE
  5
6D7
330
1E
100
AcDbEntity
  8
LAY0_0
  6
Continuous
 62
     0
100
AcDbPolyline
 90
        2
 70
     0
 43
0.0
 10
52691.2902832031
 20
50226.1535644531
 10
52691.2902832031
 20
50178.5400390625
  0
LWPOLYLINE
  5
6E0
330
1E
100
AcDbEntity
  8
LAY0_0
  6
Continuous
 62
     0
100
AcDbPolyline
 90
        2
 70
     0
 43
0.0
 10
51922.7905273438
 20
60556.2316894531
 10
53060.2905273438
 20
60318.1396484375
  0
LWPOLYLINE
  5
6E4
330
1E
100
AcDbEntity
  8
LAY0_0
  6
Continuous
 62
     0
100
AcDbPolyline
 90
        4
 70
     0
 43
0.0
 10
50681.8939208984
 20
60080.0537109375
 10
50625.0183105469
 20
60041.9555664063
 10
50475.0793457031
 20
59937.1887207031
 10
50526.7822265625
 20
59746.7102050781
  0
LWPOLYLINE
  5
6EA
330
1E
100
AcDbEntity
  8
LAY0_0
  6
Continuous
 62
     0
100
AcDbPolyline
 90
        2
 70
     0
 43
0.0
 10
51922.7905273438
 20
60651.4709472656
 10
51922.7905273438
 20
60603.857421875
  0
LWPOLYLINE
  5
6EE
330
1E
100
AcDbEntity
  8
LAY0_0
  6
Continuous
 62
     0
100
AcDbPolyline
 90
        2
 70
     0
 43
0.0
 10
51715.9729003906
 20
60222.8942871094
 10
51819.384765625
 20
60127.6550292969
  0
LWPOLYLINE
  5
6F2
330
1E
100
AcDbEntity
  8
LAY0_0
  6
Continuous
 62
     0
100
AcDbPolyline
 90
        2
 70
     0
 43
0.0
 10
50888.7084960938
 20
59937.1887207031
 10
50837.0056152344
 20
59699.0905761719
  0
LWPOLYLINE
  5
6FA
330
1E
100
AcDbEntity
  8
LAY0_0
  6
Continuous
 62
     0
100
AcDbPolyline
 90
        2
 70
     0
 43
0.0
 10
90856.04248046881
 20
53413.37890625
 10
90907.75146484381
 20
53413.37890625
  0
LWPOLYLINE
  5
6FE
330
1E
100
AcDbEntity
  8
LAY0_0
  6
Continuous
 62
     0
100
AcDbPolyline
 90
        2
 70
     0
 43
0.0
 10
53577.3315429688
 20
55746.7102050781
 10
53629.0405273438
 20
55746.7102050781
  0
LWPOLYLINE
  5
702
330
1E
100
AcDbEntity
  8
LAY0_0
  6
Continuous
 62
     0
100
AcDbPolyline
 90
        2
 70
     0
 43
0.0
 10
91217.97485351561
 20
51175.2807617188
 10
91217.97485351561
 20
51127.6550292969
  0
LWPOLYLINE
  5
706
330
1E
100
AcDbEntity
  8
LAY0_0
  6
Continuous
 62
     0
100
AcDbPolyline
 90
        2
 70
     0
 43
0.0
 10
91166.27197265631
 20
51127.6550292969
 10
91217.97485351561
 20
51127.6550292969
  0
LWPOLYLINE
  5
70A
330
1E
100
AcDbEntity
  8
LAY0_0
  6
CENTER
 62
     0
100
AcDbPolyline
 90
        2
 70
     0
 43
0.0
 10
85789.0319824219
 20
50841.9372558594
 10
85789.0319824219
 20
50746.7163085938
  0
LWPOLYLINE
  5
712
330
1E
100
AcDbEntity
  8
LAY0_0
  6
Continuous
 62
     0
100
AcDbPolyline
 90
        2
 70
     0
 43
0.0
 10
90132.18994140631
 20
55460.9924316406
 10
90132.18994140631
 20
55413.3728027344
  0
LWPOLYLINE
  5
716
330
1E
100
AcDbEntity
  8
LAY0_0
  6
Continuous
 62
     0
100
AcDbPolyline
 90
        2
 70
     0
 43
0.0
 10
50423.3764648438
 20
56365.7592773438
 10
50423.3764648438
 20
56175.2746582031
  0
LWPOLYLINE
  5
71A
330
1E
100
AcDbEntity
  8
LAY0_0
  6
Continuous
 62
     0
100
AcDbPolyline
 90
        2
 70
     0
 43
0.0
 10
53990.9606933594
 20
54984.8083496094
 10
54301.1840820313
 20
54984.8083496094
  0
LWPOLYLINE
  5
71E
330
1E
100
AcDbEntity
  8
LAY0_0
  6
Continuous
 62
     0
100
AcDbPolyline
 90
        2
 70
     0
 43
0.0
 10
77051.0192871094
 20
54222.900390625
 10
77051.0192871094
 20
54175.2746582031
  0
LWPOLYLINE
  5
726
330
1E
100
AcDbEntity
  8
LAY0_0
  6
Continuous
 62
     0
100
AcDbPolyline
 90
        2
 70
     0
 43
0.0
 10
51974.5056152344
 20
57277.99329087191
 10
51974.5056152344
 20
57270.5200195313
  0
LWPOLYLINE
  5
72E
330
1E
100
AcDbEntity
  8
LAY0_0
  6
Continuous
 62
     0
100
AcDbPolyline
 90
        2
 70
     0
 43
0.0
 10
83152.1118164063
 20
51794.3237304688
 10
83203.8208007813
 20
51794.3237304688
  0
LWPOLYLINE
  5
732
330
1E
100
AcDbEntity
  8
LAY0_0
  6
Continuous
 62
     0
100
AcDbPolyline
 90
        2
 70
     0
 43
0.0
 10
54559.7106933594
 20
54270.5200195313
 10
54714.8193359375
 20
54127.6672363281
  0
LWPOLYLINE
  5
736
330
1E
100
AcDbEntity
  8
LAY0_0
  6
Continuous
 62
     0
100
AcDbPolyline
 90
        2
 70
     0
 43
0.0
 10
84961.767578125
 20
51794.3237304688
 10
85272.0031738281
 20
51794.3237304688
  0
LWPOLYLINE
  5
73E
330
1E
100
AcDbEntity
  8
LAY0_0
  6
Continuous
 62
     0
100
AcDbPolyline
 90
        2
 70
     0
 43
0.0
 10
47941.57409667969
 20
48889.5690917969
 10
47993.2708740234
 20
48889.5690917969
  0
LWPOLYLINE
  5
742
330
1E
100
AcDbEntity
  8
LAY0_0
  6
Continuous
 62
     0
100
AcDbPolyline
 90
        2
 70
     0
 43
0.0
 10
54559.7106933594
 20
54841.943359375
 10
54611.4074707031
 20
54841.943359375
  0
LWPOLYLINE
  5
746
330
1E
100
AcDbEntity
  8
LAY0_0
  6
Continuous
 62
     0
100
AcDbPolyline
 90
        2
 70
     0
 43
0.0
 10
50837.0056152344
 20
59699.0905761719
 10
50733.6029052734
 20
59603.857421875
  0
LWPOLYLINE
  5
74E
330
1E
100
AcDbEntity
  8
LAY0_0
  6
Continuous
 62
     0
100
AcDbPolyline
 90
        2
 70
     0
 43
0.0
 10
54714.8193359375
 20
50603.8513183594
 10
54714.8193359375
 20
50556.2377929688
  0
LWPOLYLINE
  5
752
330
1E
100
AcDbEntity
  8
LAY0_0
  6
Continuous
 62
     0
100
AcDbPolyline
 90
        2
 70
     0
 43
0.0
 10
54818.2250976563
 20
55032.4279785156
 10
54663.1164550781
 20
54984.8083496094
  0
LWPOLYLINE
  5
756
330
1E
100
AcDbEntity
  8
LAY0_0
  6
Continuous
 62
     0
100
AcDbPolyline
 90
        2
 70
     0
 43
0.0
 10
53784.1430664063
 20
55080.0415039063
 10
53835.8520507813
 20
55080.0415039063
  0
LWPOLYLINE
  5
75A
330
1E
100
AcDbEntity
  8
LAY0_0
  6
Continuous
 62
     0
100
AcDbPolyline
 90
        2
 70
     0
 43
0.0
 10
54611.4074707031
 20
54889.5690917969
 10
54611.4074707031
 20
54841.943359375
  0
LWPOLYLINE
  5
75E
330
1E
100
AcDbEntity
  8
LAY0_0
  6
Continuous
 62
     0
100
AcDbPolyline
 90
        2
 70
     0
 43
0.0
 10
56669.8425292969
 20
50603.8513183594
 10
56721.5393066406
 20
50603.8513183594
  0
LWPOLYLINE
  5
762
330
1E
100
AcDbEntity
  8
LAY0_0
  6
Continuous
 62
     0
100
AcDbPolyline
 90
        2
 70
     0
 43
0.0
 10
51974.5056152344
 20
57222.900390625
 10
52026.2084960938
 20
57032.4340820313
  0
LWPOLYLINE
  5
766
330
1E
100
AcDbEntity
  8
LAY0_0
  6
Continuous
 62
     0
100
AcDbPolyline
 90
        2
 70
     0
 43
0.0
 10
53008.5815429688
 20
55080.0415039063
 10
53008.5815429688
 20
55032.4279785156
  0
LWPOLYLINE
  5
76A
330
1E
100
AcDbEntity
  8
LAY0_0
  6
Continuous
 62
     0
100
AcDbPolyline
 90
        2
 70
     0
 43
0.0
 10
52691.2902832031
 20
50416.6320800781
 10
52691.2902832031
 20
50226.1535644531
  0
LWPOLYLINE
  5
772
330
1E
100
AcDbEntity
  8
LAY0_0
  6
Continuous
 62
     0
100
AcDbPolyline
 90
        2
 70
     0
 43
0.0
 10
89563.43994140631
 20
55413.3728027344
 10
89615.14892578131
 20
55413.3728027344
  0
LWPOLYLINE
  5
776
330
1E
100
AcDbEntity
  8
LAY0_0
  6
Continuous
 62
     0
100
AcDbPolyline
 90
        2
 70
     0
 43
0.0
 10
89997.76578425248
 20
56222.900390625
 10
90339.00146484381
 20
56222.900390625
  0
LWPOLYLINE
  5
77E
330
1E
100
AcDbEntity
  8
LAY0_0
  6
Continuous
 62
     0
100
AcDbPolyline
 90
        2
 70
     0
 43
0.0
 10
84910.05859375
 20
52996.13637498034
 10
84910.05859375
 20
52889.5629882813
  0
LWPOLYLINE
  5
783
330
1E
100
AcDbEntity
  8
LAY0_0
  6
Continuous
 62
     0
100
AcDbPolyline
 90
        2
 70
     0
 43
0.0
 10
52691.2902832031
 20
50464.2456054688
 10
52691.2902832031
 20
50416.6320800781
  0
LWPOLYLINE
  5
787
330
1E
100
AcDbEntity
  8
LAY0_0
  6
Continuous
 62
     0
100
AcDbPolyline
 90
        2
 70
     0
 43
0.0
 10
52639.5874023438
 20
50178.5400390625
 10
52691.2902832031
 20
50178.5400390625
  0
LWPOLYLINE
  5
78B
330
1E
100
AcDbEntity
  8
LAY0_0
  6
Continuous
 62
     0
100
AcDbPolyline
 90
        2
 70
     0
 43
0.0
 10
47217.7154541016
 20
48889.5690917969
 10
47269.4183349609
 20
48889.5690917969
  0
LWPOLYLINE
  5
793
330
1E
100
AcDbEntity
  8
LAY0_0
  6
Continuous
 62
     0
100
AcDbPolyline
 90
        2
 70
     0
 43
0.0
 10
51405.7556152344
 20
60699.0966796875
 10
51405.7556152344
 20
60651.4709472656
  0
LWPOLYLINE
  5
797
330
1E
100
AcDbEntity
  8
LAY0_0
  6
Continuous
 62
     0
100
AcDbPolyline
 90
        2
 70
     0
 43
0.0
 10
51922.7905273438
 20
60651.4709472656
 10
51974.5056152344
 20
60651.4709472656
  0
LWPOLYLINE
  5
7A3
330
1E
100
AcDbEntity
  8
LAY0_0
  6
Continuous
 62
     0
100
AcDbPolyline
 90
        2
 70
     0
 43
0.0
 10
90907.75146484381
 20
53413.37890625
 10
90959.45434570311
 20
53413.37890625
  0
LWPOLYLINE
  5
7A7
330
1E
100
AcDbEntity
  8
LAY0_0
  6
Continuous
 62
     0
100
AcDbPolyline
 90
        2
 70
     0
 43
0.0
 10
51405.7556152344
 20
60699.0966796875
 10
51457.4584960938
 20
60699.0966796875
  0
LWPOLYLINE
  5
7AB
330
1E
100
AcDbEntity
  8
LAY0_0
  6
Continuous
 62
     0
100
AcDbPolyline
 90
        2
 70
     0
 43
0.0
 10
54301.1840820313
 20
54984.8083496094
 10
54352.8930664063
 20
54984.8083496094
  0
LWPOLYLINE
  5
7B3
330
1E
100
AcDbEntity
  8
LAY0_0
  6
Continuous
 62
     0
100
AcDbPolyline
 90
        2
 70
     0
 43
0.0
 10
54663.1164550781
 20
54984.8083496094
 10
54611.4074707031
 20
54889.5690917969
  0
LWPOLYLINE
  5
7B7
330
1E
100
AcDbEntity
  8
LAY0_0
  6
Continuous
 62
     0
100
AcDbPolyline
 90
        2
 70
     0
 43
0.0
 10
90339.00146484381
 20
56222.900390625
 10
90390.70434570311
 20
56222.900390625
  0
LWPOLYLINE
  5
7BB
330
1E
100
AcDbEntity
  8
LAY0_0
  6
Continuous
 62
     0
100
AcDbPolyline
 90
        2
 70
     0
 43
0.0
 10
53008.5815429688
 20
55270.5200195313
 10
53060.2905273438
 20
55270.5200195313
  0
LWPOLYLINE
  5
7BF
330
1E
100
AcDbEntity
  8
LAY0_0
  6
Continuous
 62
     0
100
AcDbPolyline
 90
        2
 70
     0
 43
0.0
 10
49544.40612792969
 20
55032.4279785156
 10
49544.40612792969
 20
54984.8083496094
  0
ARC
  5
7CB
330
1E
100
AcDbEntity
  8
LAY0_0
  6
Continuous
 62
     0
100
AcDbCircle
 10
51539.1357421875
 20
56927.0874023438
 30
0.0
 40
77.6276826858521
100
AcDbArc
 50
333.3291445912469
 51
172.8092231209106
  0
ARC
  5
7CF
330
1E
100
AcDbEntity
  8
LAY0_0
  6
Continuous
 62
     0
100
AcDbCircle
 10
50810.89818084445
 20
48902.42939106017
 30
0.0
 40
3677.252765453845
100
AcDbArc
 50
231.8622341837768
 51
258.799532434498
  0
ARC
  5
7D0
330
1E
100
AcDbEntity
  8
LAY0_0
  6
Continuous
 62
     0
100
AcDbCircle
 10
46761.44002265961
 20
44261.11087225896
 30
0.0
 40
2494.484255377779
100
AcDbArc
 50
44.52089138895789
 51
91.42110417510202
  0
ARC
  5
7D1
330
1E
100
AcDbEntity
  8
LAY0_0
  6
Continuous
 62
     0
100
AcDbCircle
 10
47538.0004882813
 20
45039.8742675781
 30
0.0
 40
140.594983100891
100
AcDbArc
 50
270.000000683245
 51
0.0
  0
ARC
  5
7D2
330
1E
100
AcDbEntity
  8
LAY0_0
  6
Continuous
 62
     0
100
AcDbCircle
 10
81483.9965820313
 20
57197.3266601563
 30
0.0
 40
75.0117182731628
100
AcDbArc
 50
92.73216013475331
 51
253.7883827636799
  0
ARC
  5
7D3
330
1E
100
AcDbEntity
  8
LAY0_0
  6
Continuous
 62
     0
100
AcDbCircle
 10
81827.197265625
 20
57159.9792480469
 30
0.0
 40
76.6602396965027
100
AcDbArc
 50
278.434300760971
 51
68.08646753370532
  0
CIRCLE
  5
7D6
330
1E
100
AcDbEntity
  8
LAY0_0
  6
Continuous
 62
     0
100
AcDbCircle
 10
85789.0319824219
 20
33691.3452148438
 30
0.0
 40
1058.74977111816
  0
ARC
  5
7D7
330
1E
100
AcDbEntity
  8
LAY0_0
  6
Continuous
 62
     0
100
AcDbCircle
 10
65800.3540039063
 20
33568.0603027344
 30
0.0
 40
25806.3873291016
100
AcDbArc
 50
343.69940839384
 51
16.9387359529428
  0
ARC
  5
7D8
330
1E
100
AcDbEntity
  8
LAY0_0
  6
Continuous
 62
     0
100
AcDbCircle
 10
52116.0278320313
 20
56841.2963867188
 30
0.0
 40
77.7278661727905
100
AcDbArc
 50
171.1257779318618
 51
249.8005629531767
  0
ARC
  5
7D9
330
1E
100
AcDbEntity
  8
LAY0_0
  6
Continuous
 62
     0
100
AcDbCircle
 10
51730.1391601563
 20
56841.064453125
 30
0.0
 40
77.7278661727905
100
AcDbArc
 50
290.36847173168
 51
343.408660901251
  0
CIRCLE
  5
7DA
330
1E
100
AcDbEntity
  8
LAY0_0
  6
Continuous
 62
     0
100
AcDbCircle
 10
82718.408203125
 20
53774.9206542969
 30
0.0
 40
80.03590703010559
  0
ARC
  5
7DB
330
1E
100
AcDbEntity
  8
LAY0_0
  6
Continuous
 62
     0
100
AcDbCircle
 10
50742.5842285156
 20
58227.8625488281
 30
0.0
 40
75.7960319519043
100
AcDbArc
 50
131.525223563649
 51
177.79527458639
  0
CIRCLE
  5
7DC
330
1E
100
AcDbEntity
  8
LAY0_0
  6
Continuous
 62
     0
100
AcDbCircle
 10
52823.5961914063
 20
55360.8947753906
 30
0.0
 40
54.8292875289917
  0
CIRCLE
  5
7DD
330
1E
100
AcDbEntity
  8
LAY0_0
  6
Continuous
 62
     0
100
AcDbCircle
 10
68808.0810546875
 20
58652.0690917969
 30
0.0
 40
99.6596336364746
  0
CIRCLE
  5
7DE
330
1E
100
AcDbEntity
  8
LAY0_0
  6
Continuous
 62
     0
100
AcDbCircle
 10
62954.0405273438
 20
59327.3254394531
 30
0.0
 40
99.6596336364746
  0
ARC
  5
7DF
330
1E
100
AcDbEntity
  8
LAY0_0
  6
Continuous
 62
     0
100
AcDbCircle
 10
50667.5872802734
 20
58238.4948730469
 30
0.0
 40
116.405951976776
100
AcDbArc
 50
266.4528648812041
 51
348.520647683656
  0
ARC
  5
7E0
330
1E
100
AcDbEntity
  8
LAY0_0
  6
Continuous
 62
     0
100
AcDbCircle
 10
56302.53487223096
 20
33826.43071114896
 30
0.0
 40
2747.26791381836
100
AcDbArc
 50
282.27721107483
 51
314.0801323255252
  0
ARC
  5
7E1
330
1E
100
AcDbEntity
  8
LAY0_0
  6
Continuous
 62
     0
100
AcDbCircle
 10
56370.81777073296
 20
33740.64123811453
 30
0.0
 40
2552.71968841553
100
AcDbArc
 50
41.27294201019733
 51
78.34029585537608
  0
ARC
  5
7E3
330
1E
100
AcDbEntity
  8
LAY0_0
  6
Continuous
 62
     0
100
AcDbCircle
 10
55767.08984375
 20
33691.3452148438
 30
0.0
 40
3060.37464141846
100
AcDbArc
 50
323.0777127787746
 51
34.49486916843509
  0
CIRCLE
  5
7E4
330
1E
100
AcDbEntity
  8
LAY0_0
  6
Continuous
 62
     0
100
AcDbCircle
 10
85789.0319824219
 20
33691.3452148438
 30
0.0
 40
5480.64613342285
  0
ARC
  5
7E5
330
1E
100
AcDbEntity
  8
LAY0_0
  6
Continuous
 62
     0
100
AcDbCircle
 10
55306.77957483262
 20
33685.63739309748
 30
0.0
 40
3781.00700378418
100
AcDbArc
 50
329.9195712778154
 51
6.764467288618756
  0
ARC
  5
7E6
330
1E
100
AcDbEntity
  8
LAY0_0
  6
Continuous
 62
     0
100
AcDbCircle
 10
55223.87268443049
 20
33688.00256292296
 30
0.0
 40
3863.07716369629
100
AcDbArc
 50
6.584794190629461
 51
29.80707769760042
  0
ARC
  5
7EB
330
1E
100
AcDbEntity
  8
LAY0_0
  6
Continuous
 62
     0
100
AcDbCircle
 10
56804.10950083679
 20
33949.09265081366
 30
0.0
 40
2427.34966278076
100
AcDbArc
 50
43.12031768949883
 51
85.347701113594
  0
ARC
  5
7ED
330
1E
100
AcDbEntity
  8
LAY0_0
  6
Continuous
 62
     0
100
AcDbCircle
 10
56583.52109896576
 20
33853.79006248229
 30
0.0
 40
2870.0569152832
100
AcDbArc
 50
278.3637993104716
 51
314.0372141357664
  0
ARC
  5
7EE
330
1E
100
AcDbEntity
  8
LAY0_0
  6
Continuous
 62
     0
100
AcDbCircle
 10
51657.0983886719
 20
56835.5529785156
 30
0.0
 40
219.701957702637
100
AcDbArc
 50
152.5575281866016
 51
244.4435581476467
  0
ARC
  5
7EF
330
1E
100
AcDbEntity
  8
LAY0_0
  6
Continuous
 62
     0
100
AcDbCircle
 10
82479.9682617188
 20
49603.8513183594
 30
0.0
 40
568.745994567871
100
AcDbArc
 50
0.0
 51
180.000005008956
  0
CIRCLE
  5
7F0
330
1E
100
AcDbEntity
  8
LAY0_0
  6
Continuous
 62
     0
100
AcDbCircle
 10
50689.5202636719
 20
59848.5473632813
 30
0.0
 40
138.979065418243
  0
CIRCLE
  5
7F1
330
1E
100
AcDbEntity
  8
LAY0_0
  6
Continuous
 62
     0
100
AcDbCircle
 10
49541.845703125
 20
55298.7243652344
 30
0.0
 40
264.937543869019
  0
CIRCLE
  5
7F2
330
1E
100
AcDbEntity
  8
LAY0_0
  6
Continuous
 62
     0
100
AcDbCircle
 10
49541.845703125
 20
58890.2221679688
 30
0.0
 40
264.937543869019
  0
ARC
  5
7F3
330
1E
100
AcDbEntity
  8
LAY0_0
  6
Continuous
 62
     0
100
AcDbCircle
 10
59228.3813476563
 20
49689.0686035156
 30
0.0
 40
507.582426071167
100
AcDbArc
 50
180.000005008956
 51
0.0
  0
CIRCLE
  5
7F4
330
1E
100
AcDbEntity
  8
LAY0_0
  6
Continuous
 62
     0
100
AcDbCircle
 10
51922.7905273438
 20
58083.2824707031
 30
0.0
 40
175.48907995224
  0
ARC
  5
7F5
330
1E
100
AcDbEntity
  8
LAY0_0
  6
Continuous
 62
     0
100
AcDbCircle
 10
52179.86043463544
 20
56838.01694798869
 30
0.0
 40
78.16168755561021
100
AcDbArc
 50
294.2640645571386
 51
37.87865866998629
  0
CIRCLE
  5
7F6
330
1E
100
AcDbEntity
  8
LAY0_0
  6
Continuous
 62
     0
100
AcDbCircle
 10
52670.9716796875
 20
60747.9736328125
 30
0.0
 40
209.909796714783
  0
CIRCLE
  5
7F7
330
1E
100
AcDbEntity
  8
LAY0_0
  6
Continuous
 62
     0
100
AcDbCircle
 10
52823.5961914063
 20
56271.9543457031
 30
0.0
 40
54.8292875289917
  0
ARC
  5
7F9
330
1E
100
AcDbEntity
  8
LAY0_0
  6
Continuous
 62
     0
100
AcDbCircle
 10
59228.3813476563
 20
49689.0686035156
 30
0.0
 40
507.5831890106201
100
AcDbArc
 50
0.0
 51
180.000005008956
  0
CIRCLE
  5
7FA
330
1E
100
AcDbEntity
  8
LAY0_0
  6
Continuous
 62
     0
100
AcDbCircle
 10
77286.4807128906
 20
57670.1599121094
 30
0.0
 40
99.6596336364746
  0
CIRCLE
  5
7FB
330
1E
100
AcDbEntity
  8
LAY0_0
  6
Continuous
 62
     0
100
AcDbCircle
 10
77565.5395507813
 20
57639.501953125
 30
0.0
 40
99.6596336364746
  0
CIRCLE
  5
7FC
330
1E
100
AcDbEntity
  8
LAY0_0
  6
Continuous
 62
     0
100
AcDbCircle
 10
68529.0161132813
 20
58682.7270507813
 30
0.0
 40
99.6596336364746
  0
ARC
  5
7FD
330
1E
100
AcDbEntity
  8
LAY0_0
  6
CENTER
 62
     0
 48
100.0
100
AcDbCircle
 10
85709.2529296875
 20
44441.9555664063
 30
0.0
 40
6225.81329345703
100
AcDbArc
 50
34.4019553020617
 51
50.7232831351704
  0
CIRCLE
  5
7FE
330
1E
100
AcDbEntity
  8
LAY0_0
  6
Continuous
 62
     0
100
AcDbCircle
 10
63233.0993652344
 20
59296.6735839844
 30
0.0
 40
99.6596336364746
  0
ARC
  5
7FF
330
1E
100
AcDbEntity
  8
LAY0_0
  6
Continuous
 62
     0
100
AcDbCircle
 10
50764.4165039063
 20
58225.244140625
 30
0.0
 40
19.3538919091225
100
AcDbArc
 50
333.007293663319
 51
151.567334513162
  0
ARC
  5
800
330
1E
100
AcDbEntity
  8
LAY0_0
  6
Continuous
 62
     0
100
AcDbCircle
 10
50681.1950683594
 20
58216.0217285156
 30
0.0
 40
94.1282868385315
100
AcDbArc
 50
132.318754941421
 51
257.227355690025
  0
ARC
  5
801
330
1E
100
AcDbEntity
  8
LAY0_0
  6
Continuous
 62
     0
100
AcDbCircle
 10
52204.55464445863
 20
56839.77835027198
 30
0.0
 40
219.701957702637
100
AcDbArc
 50
293.4352312812078
 51
28.44178912988731
  0
ARC
  5
802
330
1E
100
AcDbEntity
  8
LAY0_0
  6
CENTER
 62
     0
 48
100.0
100
AcDbCircle
 10
85709.2529296875
 20
44441.9555664063
 30
0.0
 40
5882.341766357421
100
AcDbArc
 50
34.5983129954158
 51
50.7232831351704
  0
CIRCLE
  5
803
330
1E
100
AcDbEntity
  8
LAY0_0
  6
Continuous
 62
     0
100
AcDbCircle
 10
51925.244140625
 20
59824.3835449219
 30
0.0
 40
216.685461997986
  0
ARC
  5
804
330
1E
100
AcDbEntity
  8
LAY0_0
  6
Continuous
 62
     0
100
AcDbCircle
 10
51657.38863027126
 20
56835.91516262959
 30
0.0
 40
74.58256869086367
100
AcDbArc
 50
130.9534338836244
 51
244.3590466650793
  0
CIRCLE
  5
805
330
1E
100
AcDbEntity
  8
LAY0_0
  6
Continuous
 62
     0
100
AcDbCircle
 10
74419.6533203125
 20
58001.6296386719
 30
0.0
 40
99.6596336364746
  0
CIRCLE
  5
806
330
1E
100
AcDbEntity
  8
LAY0_0
  6
Continuous
 62
     0
100
AcDbCircle
 10
74698.6999511719
 20
57970.9716796875
 30
0.0
 40
99.6596336364746
  0
ARC
  5
807
330
1E
100
AcDbEntity
  8
LAY0_0
  6
Continuous
 62
     0
100
AcDbCircle
 10
50706.787109375
 20
58239.1967773438
 30
0.0
 40
41.0389304161072
100
AcDbArc
 50
193.223114638318
 51
351.689992062325
  0
ARC
  5
808
330
1E
100
AcDbEntity
  8
LAY0_0
  6
Continuous
 62
     0
100
AcDbCircle
 10
51692.626953125
 20
57177.0751953125
 30
0.0
 40
413.943767547607
100
AcDbArc
 50
260.61357223522
 51
278.9732300072411
  0
ARC
  5
809
330
1E
100
AcDbEntity
  8
LAY0_0
  6
Continuous
 62
     0
100
AcDbCircle
 10
52154.1381835938
 20
57042.1264648438
 30
0.0
 40
281.375956535339
100
AcDbArc
 50
256.65315534688
 51
281.8628198348383
  0
ARC
  5
80A
330
1E
100
AcDbEntity
  8
LAY0_0
  6
Continuous
 62
     0
100
AcDbCircle
 10
51922.7905273438
 20
60345.7580566406
 30
0.0
 40
3725.88996887207
100
AcDbArc
 50
264.447876510725
 51
275.6859028089243
  0
ARC
  5
80B
330
1E
100
AcDbEntity
  8
LAY0_0
  6
Continuous
 62
     0
100
AcDbCircle
 10
89654.94384765631
 20
26713.330078125
 30
0.0
 40
993.5562133789059
100
AcDbArc
 50
276.635993914776
 51
336.9807698733521
  0
ARC
  5
80C
330
1E
100
AcDbEntity
  8
LAY0_0
  6
Continuous
 62
     0
100
AcDbCircle
 10
89455.26733398439
 20
40651.513671875
 30
0.0
 40
1119.93408203125
100
AcDbArc
 50
22.8676884921615
 51
73.69925124368001
  0
TEXT
  5
80D
330
1E
100
AcDbEntity
  8
LAY0_0
 62
     0
100
AcDbText
 10
92587.26806640631
 20
46845.2209472656
 30
0.0
 40
800.0
  1
3.0m
100
AcDbText
  0
TEXT
  5
80E
330
1E
100
AcDbEntity
  8
LAY0_0
 62
     0
100
AcDbText
 10
92664.74609375
 20
33301.7547607422
 30
0.0
 40
800.0
  1
16.0m
100
AcDbText
  0
TEXT
  5
80F
330
1E
100
AcDbEntity
  8
LAY0_0
 62
     0
100
AcDbText
 10
62802.27291783108
 20
22136.9613647461
 30
0.0
 40
800.0
  1
船倉寸法　14,400×18,800
100
AcDbText
  0
TEXT
  5
810
330
1E
100
AcDbEntity
  8
LAY0_0
 62
     0
100
AcDbText
 10
67747.7172851563
 20
43160.2478027344
 30
0.0
 40
800.0
  1
45.5m
100
AcDbText
  0
TEXT
  5
811
330
1E
100
AcDbEntity
  8
LAY0_0
 62
     0
100
AcDbText
 10
67962.57377385409
 20
63354.77903156495
 30
0.0
 40
2000.0
  1
宝生号
100
AcDbText
  0
TEXT
  5
812
330
1E
100
AcDbEntity
  8
LAY0_0
 62
     0
100
AcDbText
 10
79013.49868391948
 20
47601.8743367684
 30
0.0
 40
800.0
  1
H=0.6
100
AcDbText
  0
ARC
  5
81E
330
1E
100
AcDbEntity
  8
0
  6
Continuous
100
AcDbCircle
 10
52314.45572328456
 20
56929.09209121664
 30
0.0
 40
84.68100772594175
100
AcDbArc
 50
10.42491295730551
 51
210.5830313444273
  0
LINE
  5
81F
330
1E
100
AcDbEntity
  8
0
  6
Continuous
100
AcDbLine
 10
45944.99824669776
 20
36868.93882070787
 30
0.0
 11
45948.32515630196
 21
40236.27852255059
 31
0.0
  0
LINE
  5
820
330
1E
100
AcDbEntity
  8
0
  6
Continuous
100
AcDbLine
 10
45917.28061187721
 20
41297.32508198707
 30
0.0
 11
45917.28061187721
 21
41526.42822265629
 31
0.0
  0
LINE
  5
82A
330
1E
100
AcDbEntity
  8
LAY0_0
  6
Continuous
 62
     0
100
AcDbLine
 10
45924.79248046881
 20
44893.88355009794
 30
0.0
 11
45924.79248046881
 21
44331.6772460938
 31
0.0
  0
LINE
  5
82D
330
1E
100
AcDbEntity
  8
LAY0_0
  6
Continuous
 62
     0
100
AcDbLine
 10
91032.65380859381
 20
25726.3793945313
 30
0.0
 11
93335.33935546881
 21
25726.3793945313
 31
0.0
  0
LINE
  5
82E
330
1E
100
AcDbEntity
  8
LAY0_0
  6
Continuous
 62
     0
100
AcDbLine
 10
61879.60205078129
 20
25726.4282226563
 30
0.0
 11
61879.6020507813
 21
41726.42822265629
 31
0.0
  0
LINE
  5
82F
330
1E
100
AcDbEntity
  8
LAY0_0
  6
Continuous
 62
     0
100
AcDbLine
 10
80179.6020507813
 20
40926.42822265629
 30
0.0
 11
62143.3715820313
 21
40926.42822265629
 31
0.0
  0
LINE
  5
830
330
1E
100
AcDbEntity
  8
LAY0_0
  6
Continuous
 62
     0
100
AcDbLine
 10
89769.60959428965
 20
41726.42822265629
 30
0.0
 11
46117.28061187721
 21
41726.42822265629
 31
0.0
  0
ARC
  5
836
330
1E
100
AcDbEntity
  8
0
  6
Continuous
100
AcDbCircle
 10
46125.1068115234
 20
25926.4282226563
 30
0.0
 40
200.0000000000036
100
AcDbArc
 50
180.0
 51
270.0
  0
ARC
  5
83D
330
1E
100
AcDbEntity
  8
0
  6
Continuous
100
AcDbCircle
 10
46425.10681152341
 20
30514.2578125
 30
0.0
 40
500.0
100
AcDbArc
 50
90.0
 51
180.0
  0
ARC
  5
845
330
1E
100
AcDbEntity
  8
0
  6
Continuous
100
AcDbCircle
 10
46213.5882568359
 20
35420.35644531251
 30
0.0
 40
770.0
100
AcDbArc
 50
90.0
 51
180.0
  0
ARC
  5
846
330
1E
100
AcDbEntity
  8
0
  6
Continuous
100
AcDbCircle
 10
46213.5882568359
 20
31935.24658203129
 30
0.0
 40
770.0
100
AcDbArc
 50
180.0
 51
270.0
  0
ARC
  5
84C
330
1E
100
AcDbEntity
  8
0
  6
Continuous
100
AcDbCircle
 10
46188.4826660156
 20
35441.3513183594
 30
0.0
 40
900.0
100
AcDbArc
 50
90.0
 51
180.0000000000004
  0
ARC
  5
84D
330
1E
100
AcDbEntity
  8
0
  6
Continuous
100
AcDbCircle
 10
46188.4826660156
 20
31941.3330078125
 30
0.0
 40
900.0
100
AcDbArc
 50
180.0000000000002
 51
270.0
  0
ARC
  5
851
330
1E
100
AcDbEntity
  8
0
  6
Continuous
100
AcDbCircle
 10
46444.99800266517
 20
36868.4448242188
 30
0.0
 40
500.0
100
AcDbArc
 50
179.9433921629543
 51
270.0
  0
ARC
  5
854
330
1E
100
AcDbEntity
  8
0
  6
Continuous
100
AcDbCircle
 10
46117.28061187721
 20
41526.42822265629
 30
0.0
 40
200.0
100
AcDbArc
 50
90.0
 51
180.0
  0
LINE
  5
856
330
1E
100
AcDbEntity
  8
LAY0_0
  6
Continuous
 62
     0
100
AcDbLine
 10
46444.99800266517
 20
33691.3513242188
 30
0.0
 11
57000.9887695313
 21
33691.3513242188
 31
0.0
  0
LINE
  5
87D
330
1E
100
AcDbEntity
  8
LAY0_0
  6
Continuous
 62
     0
100
AcDbLine
 10
80179.6020507813
 20
40926.42822265629
 30
0.0
 11
80179.6020507813
 21
41226.3793945313
 31
0.0
  0
LINE
  5
87E
330
1E
100
AcDbEntity
  8
LAY0_0
  6
Continuous
 62
     0
100
AcDbLine
 10
80179.60205078131
 20
26226.42822265629
 30
0.0
 11
80179.6020507813
 21
26526.42822265629
 31
0.0
  0
LINE
  5
880
330
1E
100
AcDbEntity
  8
0
  6
Continuous
100
AcDbLine
 10
80179.6020507813
 20
49156.80161831679
 30
0.0
 11
80179.6020507813
 21
49251.4770507813
 31
0.0
  0
LINE
  5
882
330
1E
100
AcDbEntity
  8
0
  6
Continuous
100
AcDbLine
 10
90132.18994140631
 20
55413.3728027344
 30
0.0
 11
90092.22412109381
 21
53413.37890625
 31
0.0
  0
CIRCLE
  5
883
330
1E
100
AcDbEntity
  8
0
  6
Continuous
100
AcDbCircle
 10
90160.0830078125
 20
56260.7543945313
 30
0.0
 40
180.057168006897
  0
LINE
  5
887
330
1E
100
AcDbEntity
  8
0
  6
Continuous
100
AcDbLine
 10
81807.8125
 20
50937.1887207031
 30
0.0
 11
82685.7116699219
 21
50769.1467285156
 31
0.0
  0
LINE
  5
888
330
1E
100
AcDbEntity
  8
0
  6
Continuous
100
AcDbLine
 10
82685.7116699219
 20
50769.1467285156
 30
0.0
 11
84444.72656249999
 21
50699.0905761719
 31
0.0
  0
LINE
  5
88A
330
1E
100
AcDbEntity
  8
0
  6
Continuous
100
AcDbLine
 10
84579.95002720076
 20
50699.09057617191
 30
0.0
 11
84579.95002720076
 21
49318.1335449219
 31
0.0
  0
LINE
  5
88B
330
1E
100
AcDbEntity
  8
0
  6
Continuous
100
AcDbLine
 10
86998.11258129335
 20
50699.09057617191
 30
0.0
 11
86998.11258129336
 21
49699.3835449219
 31
0.0
  0
LINE
  5
88C
330
1E
100
AcDbEntity
  8
0
  6
Continuous
100
AcDbLine
 10
85644.7265625
 20
53950.048828125
 30
0.0
 11
85644.72656249997
 21
53253.90124240352
 31
0.0
  0
LINE
  5
88D
330
1E
100
AcDbEntity
  8
0
  6
Continuous
100
AcDbLine
 10
85685.6262207031
 20
53032.421875
 30
0.0
 11
85737.3352050781
 21
53080.0354003906
 31
0.0
  0
LINE
  5
891
330
1E
100
AcDbEntity
  8
0
  6
Continuous
100
AcDbLine
 10
49854.6264648438
 20
59365.7653808594
 30
0.0
 11
49522.15854076933
 21
59365.7653808594
 31
0.0
  0
LINE
  5
893
330
1E
100
AcDbEntity
  8
0
  6
Continuous
100
AcDbLine
 10
59988.6474609375
 20
55699.0905761719
 30
0.0
 11
59730.126953125
 21
55699.0905761719
 31
0.0
  0
LINE
  5
897
330
1E
100
AcDbEntity
  8
0
  6
Continuous
100
AcDbLine
 10
47024.1882324219
 20
45742.4865722656
 30
0.0
 11
48721.57773217075
 21
45876.38775820185
 31
0.0
  0
LINE
  5
899
330
1E
100
AcDbEntity
  8
LAY0_0
  6
Continuous
 62
     0
100
AcDbLine
 10
46888.1591796875
 20
44900.8239746094
 30
0.0
 11
46888.1591796875
 21
44947.1740722656
 31
0.0
  0
LINE
  5
89A
330
1E
100
AcDbEntity
  8
LAY0_0
  6
Continuous
 62
     0
100
AcDbLine
 10
46828.7567138672
 20
44900.8239746094
 30
0.0
 11
46828.7567138672
 21
44947.1740722656
 31
0.0
  0
LINE
  5
89B
330
1E
100
AcDbEntity
  8
LAY0_0
  6
Continuous
 62
     0
100
AcDbLine
 10
46828.75671386719
 20
46569.4274902344
 30
0.0
 11
46828.75671386719
 21
46754.68665081723
 31
0.0
  0
LINE
  5
89C
330
1E
100
AcDbEntity
  8
LAY0_0
  6
Continuous
 62
     0
100
AcDbLine
 10
46888.1591796875
 20
46569.4274902344
 30
0.0
 11
46888.1591796875
 21
46752.37439817703
 31
0.0
  0
LINE
  5
8EB
330
1E
100
AcDbEntity
  8
0
  6
Continuous
100
AcDbLine
 10
61879.60205078132
 20
50889.5629882813
 30
0.0
 11
61879.60205078132
 21
53168.20821432372
 31
0.0
  0
LINE
  5
8EE
330
1E
100
AcDbEntity
  8
0
  6
Continuous
100
AcDbLine
 10
61879.60205078131
 20
48889.5690917969
 30
0.0
 11
61729.60205078131
 21
48889.5690917969
 31
0.0
  0
LINE
  5
8F9
330
1E
100
AcDbEntity
  8
LAY0_0
  6
Continuous
100
AcDbLine
 10
60453.9794921875
 20
51127.6550292969
 30
0.0
 11
61879.60205078131
 21
51127.6550292969
 31
0.0
  0
LINE
  5
8FA
330
1E
100
AcDbEntity
  8
LAY0_0
  6
Continuous
100
AcDbLine
 10
61879.60205078131
 20
48889.5690917969
 30
0.0
 11
61879.60205078131
 21
51127.6550292969
 31
0.0
  0
LINE
  5
8FB
330
1E
100
AcDbEntity
  8
LAY0_0
  6
Continuous
100
AcDbLine
 10
61729.60205078131
 20
48889.5690917969
 30
0.0
 11
61729.60205078131
 21
50889.5629882813
 31
0.0
  0
LINE
  5
8FC
330
1E
100
AcDbEntity
  8
LAY0_0
  6
Continuous
100
AcDbLine
 10
60453.9794921875
 20
50889.5629882813
 30
0.0
 11
61879.60205078131
 21
50889.5629882813
 31
0.0
  0
LINE
  5
8FD
330
1E
100
AcDbEntity
  8
0
  6
Continuous
100
AcDbLine
 10
61879.60205078131
 20
50089.5690917969
 30
0.0
 11
61729.60205078131
 21
50089.5690917969
 31
0.0
  0
LINE
  5
904
330
1E
100
AcDbEntity
  8
LAY0_0
  6
Continuous
100
AcDbLine
 10
59781.8298339844
 20
53351.7395019531
 30
0.0
 11
61879.60205078132
 21
53168.20821432372
 31
0.0
  0
LINE
  5
905
330
1E
100
AcDbEntity
  8
LAY0_0
  6
Continuous
100
AcDbLine
 10
59781.8298339844
 20
53301.7395019531
 30
0.0
 11
61879.60205078131
 21
53118.20821432372
 31
0.0
  0
LINE
  5
906
330
1E
100
AcDbEntity
  8
LAY0_0
  6
Continuous
 62
     0
100
AcDbLine
 10
61879.60205078129
 20
40831.42822265629
 30
0.0
 11
60719.6020507813
 21
40831.42822265629
 31
0.0
  0
LINE
  5
907
330
1E
100
AcDbEntity
  8
LAY0_0
  6
Continuous
 62
     0
100
AcDbLine
 10
61879.60205078129
 20
26621.4282226563
 30
0.0
 11
60719.60205078129
 21
26621.4282226563
 31
0.0
  0
LINE
  5
908
330
1E
100
AcDbEntity
  8
LAY0_0
  6
Continuous
 62
     0
100
AcDbLine
 10
61729.60205078129
 20
25726.42822265629
 30
0.0
 11
61729.6020507813
 21
41726.42822265629
 31
0.0
  0
LINE
  5
909
330
1E
100
AcDbEntity
  8
LAY0_0
  6
Continuous
 62
     0
100
AcDbLine
 10
61879.60205078129
 20
26771.4282226563
 30
0.0
 11
60719.60205078129
 21
26771.4282226563
 31
0.0
  0
LINE
  5
90A
330
1E
100
AcDbEntity
  8
LAY0_0
  6
Continuous
 62
     0
100
AcDbLine
 10
60869.60205078129
 20
26626.4282226563
 30
0.0
 11
60869.60205078129
 21
27776.4282226563
 31
0.0
  0
LINE
  5
90B
330
1E
100
AcDbEntity
  8
LAY0_0
  6
Continuous
 62
     0
100
AcDbLine
 10
60719.60205078129
 20
26621.4282226563
 30
0.0
 11
60719.60205078129
 21
27781.4282226563
 31
0.0
  0
LINE
  5
90C
330
1E
100
AcDbEntity
  8
LAY0_0
  6
Continuous
 62
     0
100
AcDbLine
 10
61879.60205078129
 20
27631.4282226563
 30
0.0
 11
60719.60205078129
 21
27631.4282226563
 31
0.0
  0
LINE
  5
90D
330
1E
100
AcDbEntity
  8
LAY0_0
  6
Continuous
 62
     0
100
AcDbLine
 10
61879.60205078129
 20
27781.4282226563
 30
0.0
 11
60719.60205078129
 21
27781.4282226563
 31
0.0
  0
LINE
  5
90E
330
1E
100
AcDbEntity
  8
LAY0_0
  6
Continuous
 62
     0
100
AcDbLine
 10
61879.60205078129
 20
40681.42822265629
 30
0.0
 11
60719.6020507813
 21
40681.42822265629
 31
0.0
  0
LINE
  5
90F
330
1E
100
AcDbEntity
  8
LAY0_0
  6
Continuous
 62
     0
100
AcDbLine
 10
61879.60205078129
 20
39821.42822265629
 30
0.0
 11
60719.6020507813
 21
39821.42822265629
 31
0.0
  0
LINE
  5
910
330
1E
100
AcDbEntity
  8
LAY0_0
  6
Continuous
 62
     0
100
AcDbLine
 10
61879.60205078129
 20
39671.42822265629
 30
0.0
 11
60719.6020507813
 21
39671.42822265629
 31
0.0
  0
LINE
  5
915
330
1E
100
AcDbEntity
  8
LAY0_0
  6
Continuous
 62
     0
100
AcDbLine
 10
60869.6020507813
 20
39676.42822265629
 30
0.0
 11
60869.6020507813
 21
40826.42822265629
 31
0.0
  0
LINE
  5
916
330
1E
100
AcDbEntity
  8
LAY0_0
  6
Continuous
 62
     0
100
AcDbLine
 10
60719.6020507813
 20
39671.42822265629
 30
0.0
 11
60719.6020507813
 21
40831.42822265629
 31
0.0
  0
LINE
  5
918
330
1E
100
AcDbEntity
  8
LAY0_0
  6
Continuous
 62
     0
100
AcDbLine
 10
61436.3586425781
 20
51841.94335937494
 30
0.0
 11
61436.3586425781
 21
51127.64892578125
 31
0.0
  0
LINE
  5
919
330
1E
100
AcDbEntity
  8
LAY0_0
  6
Continuous
100
AcDbLine
 10
60869.6020507813
 20
50889.5629882813
 30
0.0
 11
60869.6020507813
 21
52627.6550292969
 31
0.0
  0
LINE
  5
91A
330
1E
100
AcDbEntity
  8
LAY0_0
  6
Continuous
100
AcDbLine
 10
60719.6020507813
 20
48889.5690917969
 30
0.0
 11
60719.6020507813
 21
52627.6550292969
 31
0.0
  0
LINE
  5
91C
330
1E
100
AcDbEntity
  8
LAY0_0
  6
Continuous
100
AcDbLine
 10
60719.6020507813
 20
52627.6550292969
 30
0.0
 11
61879.60205078129
 21
52627.6550292969
 31
0.0
  0
LINE
  5
91D
330
1E
100
AcDbEntity
  8
LAY0_0
  6
Continuous
100
AcDbLine
 10
60719.6020507813
 20
52477.6550292969
 30
0.0
 11
61879.60205078129
 21
52477.6550292969
 31
0.0
  0
LINE
  5
91F
330
1E
100
AcDbEntity
  8
0
  6
Continuous
100
AcDbLine
 10
61729.60205078132
 20
50889.5629882813
 30
0.0
 11
61729.60205078132
 21
53168.20821432372
 31
0.0
  0
LINE
  5
921
330
1E
100
AcDbEntity
  8
LAY0_0
  6
Continuous
100
AcDbLine
 10
61729.6020507813
 20
64736.15882693083
 30
0.0
 11
61729.6020507813
 21
45736.15882693083
 31
0.0
  0
LINE
  5
922
330
1E
100
AcDbEntity
  8
LAY0_0
  6
Continuous
100
AcDbLine
 10
60869.60205078131
 20
64736.15882693084
 30
0.0
 11
60869.60205078131
 21
45736.15882693084
 31
0.0
  0
LINE
  5
923
330
1E
100
AcDbEntity
  8
LAY0_0
  6
Continuous
100
AcDbLine
 10
60869.60205078131
 20
64736.15882693083
 30
0.0
 11
61729.6020507813
 21
64736.15882693083
 31
0.0
  0
LINE
  5
924
330
1E
100
AcDbEntity
  8
LAY0_0
  6
Continuous
100
AcDbLine
 10
60869.60205078131
 20
45736.15882693084
 30
0.0
 11
61294.6020507813
 21
45311.15882693084
 31
0.0
  0
LINE
  5
925
330
1E
100
AcDbEntity
  8
LAY0_0
  6
Continuous
100
AcDbLine
 10
61304.6020507813
 20
45311.15882693083
 30
0.0
 11
61729.6020507813
 21
45736.15882693083
 31
0.0
  0
LINE
  5
926
330
1E
100
AcDbEntity
  8
LAY0_0
  6
Continuous
100
AcDbLine
 10
60869.6020507813
 20
45736.15882693083
 30
0.0
 11
61729.6020507813
 21
45736.15882693083
 31
0.0
  0
LINE
  5
927
330
1E
100
AcDbEntity
  8
LAY0_0
  6
Continuous
100
AcDbLine
 10
60869.60205078131
 20
61736.15882693083
 30
0.0
 11
61729.60205078131
 21
61736.15882693083
 31
0.0
  0
LINE
  5
928
330
1E
100
AcDbEntity
  8
LAY0_0
  6
Continuous
100
AcDbLine
 10
60869.60205078131
 20
58736.15882693083
 30
0.0
 11
61729.60205078131
 21
58736.15882693083
 31
0.0
  0
LINE
  5
929
330
1E
100
AcDbEntity
  8
LAY0_0
  6
Continuous
100
AcDbLine
 10
60869.60205078131
 20
55736.15882693083
 30
0.0
 11
61729.60205078131
 21
55736.15882693083
 31
0.0
  0
LINE
  5
92A
330
1E
100
AcDbEntity
  8
LAY0_0
  6
Continuous
100
AcDbLine
 10
60869.6020507813
 20
52736.15882693083
 30
0.0
 11
61729.60205078131
 21
52736.15882693083
 31
0.0
  0
LINE
  5
92B
330
1E
100
AcDbEntity
  8
LAY0_0
  6
Continuous
100
AcDbLine
 10
60869.6020507813
 20
49736.15882693083
 30
0.0
 11
61729.60205078131
 21
49736.15882693083
 31
0.0
  0
TEXT
  5
92C
330
1E
100
AcDbEntity
  8
LAY0_0
 62
     0
100
AcDbText
 10
62802.27291783108
 20
20633.65706866508
 30
0.0
 40
800.0
  1
スパット　L=19,000  □ 860×860
100
AcDbText
  0
VIEWPORT
  5
818
330
1A
100
AcDbEntity
 67
     1
  8
0
  6
Continuous
100
AcDbViewport
 10
5.72250065841074
 20
4.009999975444765
 30
0.0
 40
15.59149929882924
 41
8.749659944068728
 68
     1
 69
     1
 12
5.72250065841074
 22
4.009999975444765
 13
0.0
 23
0.0
 14
10.0
 24
10.0
 15
10.0
 25
10.0
 16
0.0
 26
0.0
 36
1.0
 17
0.0
 27
0.0
 37
0.0
 42
50.0
 43
0.0
 44
0.0
 45
8.749659944068728
 50
0.0
 51
0.0
 72
   100
 90
    32800
  1

281
     0
 71
     1
 74
     0
110
0.0
120
0.0
130
0.0
111
1.0
121
0.0
131
0.0
112
0.0
122
1.0
132
0.0
 79
     0
146
0.0
170
     0
 61
     5
348
8A6
292
     1
282
     1
141
0.0
142
0.0
 63
   256
  0
VIEWPORT
  5
81A
330
1A
100
AcDbEntity
 67
     1
  8
0
  6
Continuous
100
AcDbViewport
 10
5.722500419053506
 20
4.009999914432136
 30
0.0
 40
9.156000670485609
 41
6.415999863091418
 68
     2
 69
     2
 12
70309.61608886719
 22
42615.99858601888
 13
0.0
 23
0.0
 14
1.0
 24
1.0
 15
0.0
 25
0.0
 16
0.0
 26
0.0
 36
1.0
 17
0.0
 27
0.0
 37
0.0
 42
50.0
 43
0.0
 44
0.0
 45
41860.59829855739
 50
0.0
 51
0.0
 72
   100
 90
    32800
  1

281
     0
 71
     1
 74
     0
110
0.0
120
0.0
130
0.0
111
1.0
121
0.0
131
0.0
112
0.0
122
1.0
132
0.0
 79
     0
146
0.0
170
     0
 61
     5
348
8A6
292
     1
282
     1
141
0.0
142
0.0
 63
   256
  0
ENDSEC
  0
SECTION
  2
OBJECTS
  0
DICTIONARY
  5
C
330
0
100
AcDbDictionary
281
     1
  3
ACAD_COLOR
350
826
  3
ACAD_DETAILVIEWSTYLE
350
8E8
  3
ACAD_GROUP
350
D
  3
ACAD_LAYOUT
350
19
  3
ACAD_MATERIAL
350
825
  3
ACAD_MLEADERSTYLE
350
8E1
  3
ACAD_MLINESTYLE
350
16
  3
ACAD_PLOTSETTINGS
350
18
  3
ACAD_PLOTSTYLENAME
350
E
  3
ACAD_SCALELIST
350
8BA
  3
ACAD_SECTIONVIEWSTYLE
350
8E9
  3
ACAD_TABLESTYLE
350
8DF
  3
ACAD_VISUALSTYLE
350
8A1
  3
ACDB_RECOMPOSE_DATA
350
93B
  3
AcDbVariableDictionary
350
822
  3
APPDATA
350
8E3
  0
SUN
  5
8EA
330
8A0
100
AcDbSun
 90
        1
290
     0
 63
     7
421
 16777215
 40
1.0
291
     1
 91
  2455826
 92
 54000000
292
     0
 70
     2
 71
   256
280
     1
  0
DICTIONARY
  5
8EF
330
2
100
AcDbDictionary
280
     1
281
     1
  3
ACAD_LAYERSTATES
360
8F0
  0
DICTIONARY
  5
826
102
{ACAD_REACTORS
330
C
102
}
330
C
100
AcDbDictionary
281
     1
  0
DICTIONARY
  5
8E8
102
{ACAD_REACTORS
330
C
102
}
330
C
100
AcDbDictionary
281
     1
  0
DICTIONARY
  5
D
102
{ACAD_REACTORS
330
C
102
}
330
C
100
AcDbDictionary
281
     1
  0
DICTIONARY
  5
19
102
{ACAD_REACTORS
330
C
102
}
330
C
100
AcDbDictionary
281
     1
  3
Model
350
21
  3
ﾚｲｱｳﾄ1
350
1D
  0
DICTIONARY
  5
825
102
{ACAD_REACTORS
330
C
102
}
330
C
100
AcDbDictionary
281
     1
  3
ByBlock
350
8DD
  3
ByLayer
350
8DC
  3
Global
350
8DE
  0
DICTIONARY
  5
8E1
102
{ACAD_REACTORS
330
C
102
}
330
C
100
AcDbDictionary
281
     1
  3
Standard
350
8E2
  0
DICTIONARY
  5
16
102
{ACAD_REACTORS
330
C
102
}
330
C
100
AcDbDictionary
281
     1
  3
Standard
350
17
  0
DICTIONARY
  5
18
102
{ACAD_REACTORS
330
C
102
}
330
C
100
AcDbDictionary
281
     1
  0
ACDBDICTIONARYWDFLT
  5
E
102
{ACAD_REACTORS
330
C
102
}
330
C
100
AcDbDictionary
281
     1
  3
Normal
350
F
100
AcDbDictionaryWithDefault
340
F
  0
DICTIONARY
  5
8BA
102
{ACAD_REACTORS
330
C
102
}
330
C
100
AcDbDictionary
281
     1
  3
A0
350
8BB
  3
A1
350
8BC
  3
A2
350
8BD
  3
A3
350
8BE
  3
A4
350
8BF
  3
A5
350
8C0
  3
A6
350
8C1
  3
A7
350
8C2
  3
A8
350
8C3
  3
A9
350
8C4
  3
B0
350
8C5
  3
B1
350
8C6
  3
B2
350
8C7
  3
B3
350
8C8
  3
B4
350
8C9
  3
B5
350
8CA
  3
B6
350
8CB
  3
B7
350
8CC
  3
B8
350
8CD
  3
B9
350
8CE
  3
C0
350
8CF
  3
C1
350
8D0
  3
C2
350
8D1
  3
C3
350
8D2
  3
C4
350
8D3
  3
C5
350
8D4
  3
C6
350
8D5
  3
C7
350
8D6
  3
C8
350
8D7
  3
C9
350
8D8
  3
D0
350
8D9
  3
D1
350
8DA
  3
D2
350
8DB
  0
DICTIONARY
  5
8E9
102
{ACAD_REACTORS
330
C
102
}
330
C
100
AcDbDictionary
281
     1
  0
DICTIONARY
  5
8DF
102
{ACAD_REACTORS
330
C
102
}
330
C
100
AcDbDictionary
281
     1
  3
Standard
350
8E0
  0
DICTIONARY
  5
8A1
102
{ACAD_REACTORS
330
C
102
}
330
C
100
AcDbDictionary
281
     1
  3
2dWireframe
350
8A6
  3
Basic
350
8A9
  3
Brighten
350
8AD
  3
ColorChange
350
8B1
  3
Conceptual
350
8AB
  3
Dim
350
8AC
  3
EdgeColorOff
350
8B4
  3
Facepattern
350
8B0
  3
Flat
350
8A2
  3
FlatWithEdges
350
8A3
  3
Gouraud
350
8A4
  3
GouraudWithEdges
350
8A5
  3
Hidden
350
8A8
  3
JitterOff
350
8B2
  3
Linepattern
350
8AF
  3
OverhangOff
350
8B3
  3
Realistic
350
8AA
  3
Shaded
350
8B9
  3
Shaded with edges
350
8B8
  3
Shades of Gray
350
8B5
  3
Sketchy
350
8B6
  3
Thicken
350
8AE
  3
Wireframe
350
8A7
  3
X-Ray
350
8B7
  0
XRECORD
  5
93B
102
{ACAD_REACTORS
330
C
102
}
330
C
100
AcDbXrecord
280
     1
 90
        1
330
8E0
  0
DICTIONARY
  5
822
102
{ACAD_REACTORS
330
C
102
}
330
C
100
AcDbDictionary
281
     1
  3
CANNOSCALE
350
8E4
  3
CMLEADERSTYLE
350
8E6
  3
CTABLESTYLE
350
8E5
  3
DIMASSOC
350
823
  3
MSLTSCALE
350
8E7
  3
PROJECTNAME
350
873
  0
DICTIONARY
  5
8E3
102
{ACAD_REACTORS
330
C
102
}
330
C
100
AcDbDictionary
281
     1
  0
DICTIONARY
  5
8F0
102
{ACAD_REACTORS
330
8EF
102
}
330
8EF
100
AcDbDictionary
281
     1
  0
LAYOUT
  5
21
102
{ACAD_REACTORS
330
19
102
}
330
19
100
AcDbPlotSettings
  1

  2
Microsoft Print to PDF
  4
A3
  6

 40
0.0
 41
0.0
 42
0.0
 43
0.0
 44
297.0
 45
420.0
 46
0.0
 47
0.0
 48
39566.04602536501
 49
18796.58597370936
140
99365.45519890028
141
67340.78720132555
142
1.0
143
163.4484889818727
 70
  1712
 72
     1
 73
     1
 74
     4
  7

 75
     0
 76
     0
 77
     2
 78
   300
147
0.0061181354824938
148
-108640.3111437266
149
-61375.91569401295
100
AcDbLayout
  1
Model
 70
     1
 71
     0
 10
0.0
 20
0.0
 11
12.0
 21
9.0
 12
0.0
 22
0.0
 32
0.0
 14
45154.4860839844
 24
20500.32373533175
 34
0.0
 15
95464.74609375
 25
65228.11236489828
 35
0.0
146
0.0
 13
0.0
 23
0.0
 33
0.0
 16
1.0
 26
0.0
 36
0.0
 17
0.0
 27
1.0
 37
0.0
 76
     0
330
1E
331
8A0
1001
PLOTTRANSPARENCY
1071
        0
  0
LAYOUT
  5
1D
102
{ACAD_REACTORS
330
19
102
}
330
19
100
AcDbPlotSettings
  1

  2
Fax
  4
A4
  6

 40
3.174999952316284
 41
3.174999952316284
 42
3.175003051757812
 43
3.17498779296875
 44
210.0579986572266
 45
297.0530090332031
 46
0.0
 47
0.0
 48
0.0
 49
0.0
140
0.0
141
0.0
142
1.0
143
1.0
 70
   688
 72
     0
 73
     1
 74
     5
  7

 75
    16
 76
     0
 77
     2
 78
   300
147
1.0
148
0.0
149
0.0
100
AcDbLayout
  1
ﾚｲｱｳﾄ1
 70
     1
 71
     1
 10
-0.1249995194082185
 20
-0.1249999981226883
 11
11.5700008362297
 21
8.144999949012217
 12
0.0
 22
0.0
 32
0.0
 14
1.144500083810701
 24
0.8019999828864268
 34
0.0
 15
10.30050075429631
 25
7.217999845977845
 35
0.0
146
0.0
 13
0.0
 23
0.0
 33
0.0
 16
1.0
 26
0.0
 36
0.0
 17
0.0
 27
1.0
 37
0.0
 76
     0
330
1A
331
818
  0
MATERIAL
  5
8DD
102
{ACAD_REACTORS
330
825
102
}
330
825
100
AcDbMaterial
  1
ByBlock
 72
     1
 94
      127
  0
MATERIAL
  5
8DC
102
{ACAD_REACTORS
330
825
102
}
330
825
100
AcDbMaterial
  1
ByLayer
 72
     1
 94
      127
  0
MATERIAL
  5
8DE
102
{ACAD_REACTORS
330
825
102
}
330
825
100
AcDbMaterial
  1
Global
 72
     1
 94
      127
  0
MLEADERSTYLE
  5
8E2
102
{ACAD_REACTORS
330
8E1
102
}
330
8E1
100
AcDbMLeaderStyle
179
     2
170
     2
171
     1
172
     0
 90
        2
 40
0.0
 41
0.0
173
     1
 91
-1056964608
340
13
 92
       -2
290
     1
 42
0.09
291
     1
 43
0.36
  3
Standard
341
0
 44
0.18
300

342
11
174
     1
178
     1
175
     1
176
     0
 93
-1056964608
 45
0.18
292
     0
297
     0
 46
0.18
343
0
 94
-1056964608
 47
1.0
 49
1.0
140
1.0
293
     1
141
0.0
294
     1
177
     0
142
1.0
295
     0
296
     0
143
0.125
271
     0
272
     9
273
     9
  0
MLINESTYLE
  5
17
102
{ACAD_REACTORS
330
16
102
}
330
16
100
AcDbMlineStyle
  2
STANDARD
 70
     0
  3

 62
   256
 51
90.0
 52
90.0
 71
     2
 49
0.5
 62
   256
  6
BYLAYER
 49
-0.5
 62
   256
  6
BYLAYER
  0
ACDBPLACEHOLDER
  5
F
102
{ACAD_REACTORS
330
E
102
}
330
E
  0
SCALE
  5
8BB
102
{ACAD_REACTORS
330
8BA
102
}
330
8BA
100
AcDbScale
 70
     0
300
1:1
140
1.0
141
1.0
290
     1
  0
SCALE
  5
8BC
102
{ACAD_REACTORS
330
8BA
102
}
330
8BA
100
AcDbScale
 70
     0
300
1:2
140
1.0
141
2.0
290
     0
  0
SCALE
  5
8BD
102
{ACAD_REACTORS
330
8BA
102
}
330
8BA
100
AcDbScale
 70
     0
300
1:4
140
1.0
141
4.0
290
     0
  0
SCALE
  5
8BE
102
{ACAD_REACTORS
330
8BA
102
}
330
8BA
100
AcDbScale
 70
     0
300
1:5
140
1.0
141
5.0
290
     0
  0
SCALE
  5
8BF
102
{ACAD_REACTORS
330
8BA
102
}
330
8BA
100
AcDbScale
 70
     0
300
1:8
140
1.0
141
8.0
290
     0
  0
SCALE
  5
8C0
102
{ACAD_REACTORS
330
8BA
102
}
330
8BA
100
AcDbScale
 70
     0
300
1:10
140
1.0
141
10.0
290
     0
  0
SCALE
  5
8C1
102
{ACAD_REACTORS
330
8BA
102
}
330
8BA
100
AcDbScale
 70
     0
300
1:16
140
1.0
141
16.0
290
     0
  0
SCALE
  5
8C2
102
{ACAD_REACTORS
330
8BA
102
}
330
8BA
100
AcDbScale
 70
     0
300
1:20
140
1.0
141
20.0
290
     0
  0
SCALE
  5
8C3
102
{ACAD_REACTORS
330
8BA
102
}
330
8BA
100
AcDbScale
 70
     0
300
1:30
140
1.0
141
30.0
290
     0
  0
SCALE
  5
8C4
102
{ACAD_REACTORS
330
8BA
102
}
330
8BA
100
AcDbScale
 70
     0
300
1:40
140
1.0
141
40.0
290
     0
  0
SCALE
  5
8C5
102
{ACAD_REACTORS
330
8BA
102
}
330
8BA
100
AcDbScale
 70
     0
300
1:50
140
1.0
141
50.0
290
     0
  0
SCALE
  5
8C6
102
{ACAD_REACTORS
330
8BA
102
}
330
8BA
100
AcDbScale
 70
     0
300
1:100
140
1.0
141
100.0
290
     0
  0
SCALE
  5
8C7
102
{ACAD_REACTORS
330
8BA
102
}
330
8BA
100
AcDbScale
 70
     0
300
2:1
140
2.0
141
1.0
290
     0
  0
SCALE
  5
8C8
102
{ACAD_REACTORS
330
8BA
102
}
330
8BA
100
AcDbScale
 70
     0
300
4:1
140
4.0
141
1.0
290
     0
  0
SCALE
  5
8C9
102
{ACAD_REACTORS
330
8BA
102
}
330
8BA
100
AcDbScale
 70
     0
300
8:1
140
8.0
141
1.0
290
     0
  0
SCALE
  5
8CA
102
{ACAD_REACTORS
330
8BA
102
}
330
8BA
100
AcDbScale
 70
     0
300
10:1
140
10.0
141
1.0
290
     0
  0
SCALE
  5
8CB
102
{ACAD_REACTORS
330
8BA
102
}
330
8BA
100
AcDbScale
 70
     0
300
100:1
140
100.0
141
1.0
290
     0
  0
SCALE
  5
8CC
102
{ACAD_REACTORS
330
8BA
102
}
330
8BA
100
AcDbScale
 70
     0
300
1/128" = 1'-0"
140
0.0078125
141
12.0
290
     0
  0
SCALE
  5
8CD
102
{ACAD_REACTORS
330
8BA
102
}
330
8BA
100
AcDbScale
 70
     0
300
1/64" = 1'-0"
140
0.015625
141
12.0
290
     0
  0
SCALE
  5
8CE
102
{ACAD_REACTORS
330
8BA
102
}
330
8BA
100
AcDbScale
 70
     0
300
1/32" = 1'-0"
140
0.03125
141
12.0
290
     0
  0
SCALE
  5
8CF
102
{ACAD_REACTORS
330
8BA
102
}
330
8BA
100
AcDbScale
 70
     0
300
1/16" = 1'-0"
140
0.0625
141
12.0
290
     0
  0
SCALE
  5
8D0
102
{ACAD_REACTORS
330
8BA
102
}
330
8BA
100
AcDbScale
 70
     0
300
3/32" = 1'-0"
140
0.09375
141
12.0
290
     0
  0
SCALE
  5
8D1
102
{ACAD_REACTORS
330
8BA
102
}
330
8BA
100
AcDbScale
 70
     0
300
1/8" = 1'-0"
140
0.125
141
12.0
290
     0
  0
SCALE
  5
8D2
102
{ACAD_REACTORS
330
8BA
102
}
330
8BA
100
AcDbScale
 70
     0
300
3/16" = 1'-0"
140
0.1875
141
12.0
290
     0
  0
SCALE
  5
8D3
102
{ACAD_REACTORS
330
8BA
102
}
330
8BA
100
AcDbScale
 70
     0
300
1/4" = 1'-0"
140
0.25
141
12.0
290
     0
  0
SCALE
  5
8D4
102
{ACAD_REACTORS
330
8BA
102
}
330
8BA
100
AcDbScale
 70
     0
300
3/8" = 1'-0"
140
0.375
141
12.0
290
     0
  0
SCALE
  5
8D5
102
{ACAD_REACTORS
330
8BA
102
}
330
8BA
100
AcDbScale
 70
     0
300
1/2" = 1'-0"
140
0.5
141
12.0
290
     0
  0
SCALE
  5
8D6
102
{ACAD_REACTORS
330
8BA
102
}
330
8BA
100
AcDbScale
 70
     0
300
3/4" = 1'-0"
140
0.75
141
12.0
290
     0
  0
SCALE
  5
8D7
102
{ACAD_REACTORS
330
8BA
102
}
330
8BA
100
AcDbScale
 70
     0
300
1" = 1'-0"
140
1.0
141
12.0
290
     0
  0
SCALE
  5
8D8
102
{ACAD_REACTORS
330
8BA
102
}
330
8BA
100
AcDbScale
 70
     0
300
1-1/2" = 1'-0"
140
1.5
141
12.0
290
     0
  0
SCALE
  5
8D9
102
{ACAD_REACTORS
330
8BA
102
}
330
8BA
100
AcDbScale
 70
     0
300
3" = 1'-0"
140
3.0
141
12.0
290
     0
  0
SCALE
  5
8DA
102
{ACAD_REACTORS
330
8BA
102
}
330
8BA
100
AcDbScale
 70
     0
300
6" = 1'-0"
140
6.0
141
12.0
290
     0
  0
SCALE
  5
8DB
102
{ACAD_REACTORS
330
8BA
102
}
330
8BA
100
AcDbScale
 70
     0
300
1'-0" = 1'-0"
140
12.0
141
12.0
290
     0
  0
TABLESTYLE
  5
8E0
102
{ACAD_REACTORS
330
8DF
102
}
102
{ACAD_XDICTIONARY
360
939
102
}
330
8DF
100
AcDbTableStyle
  3
Standard
 70
     0
 71
     0
 40
0.06
 41
0.06
280
     0
281
     0
  7
STANDARD
140
0.18
170
     2
 62
     0
 63
   257
283
     0
 90
        4
 91
        0
  1

274
    -2
284
     1
 64
     0
275
    -2
285
     1
 65
     0
276
    -2
286
     1
 66
     0
277
    -2
287
     1
 67
     0
278
    -2
288
     1
 68
     0
279
    -2
289
     1
 69
     0
  7
STANDARD
140
0.25
170
     5
 62
     0
 63
   257
283
     0
 90
        4
 91
        0
  1

274
    -2
284
     1
 64
     0
275
    -2
285
     1
 65
     0
276
    -2
286
     1
 66
     0
277
    -2
287
     1
 67
     0
278
    -2
288
     1
 68
     0
279
    -2
289
     1
 69
     0
  7
STANDARD
140
0.18
170
     5
 62
     0
 63
   257
283
     0
 90
        4
 91
        0
  1

274
    -2
284
     1
 64
     0
275
    -2
285
     1
 65
     0
276
    -2
286
     1
 66
     0
277
    -2
287
     1
 67
     0
278
    -2
288
     1
 68
     0
279
    -2
289
     1
 69
     0
  0
VISUALSTYLE
  5
8A6
102
{ACAD_REACTORS
330
8A1
102
}
330
8A1
100
AcDbVisualStyle
  2
2dWireframe
 70
     4
177
     2
291
     0
 71
     0
176
     1
 72
     2
176
     1
 73
     0
176
     1
 90
        0
176
     1
 40
0.6
176
     1
 41
30.0
176
     1
 62
     5
 63
     7
421
 16777215
176
     1
 74
     1
176
     1
 91
        4
176
     1
 64
     7
176
     1
 65
   257
176
     1
 75
     1
176
     1
175
     1
176
     1
 42
1.0
176
     1
 92
        0
176
     1
 66
   257
176
     1
 43
1.0
176
     1
 76
     1
176
     1
 77
     6
176
     1
 78
     2
176
     1
 67
     7
176
     1
 79
     5
176
     1
170
     0
176
     1
171
     0
176
     1
290
     0
176
     1
 93
        1
176
     1
 44
0.0
176
     1
173
     0
176
     1
  0
VISUALSTYLE
  5
8A9
102
{ACAD_REACTORS
330
8A1
102
}
330
8A1
100
AcDbVisualStyle
  2
Basic
 70
     7
177
     2
291
     1
 71
     1
176
     1
 72
     0
176
     1
 73
     1
176
     1
 90
        0
176
     1
 40
0.6
176
     1
 41
30.0
176
     1
 62
     5
 63
     7
421
 16777215
176
     1
 74
     0
176
     1
 91
        4
176
     1
 64
     7
176
     1
 65
   257
176
     1
 75
     1
176
     1
175
     1
176
     1
 42
1.0
176
     1
 92
        8
176
     1
 66
     7
176
     1
 43
1.0
176
     1
 76
     1
176
     1
 77
     6
176
     1
 78
     2
176
     1
 67
     7
176
     1
 79
     5
176
     1
170
     0
176
     1
171
     0
176
     1
290
     0
176
     1
 93
        1
176
     1
 44
0.0
176
     1
173
     0
176
     1
  0
VISUALSTYLE
  5
8AD
102
{ACAD_REACTORS
330
8A1
102
}
330
8A1
100
AcDbVisualStyle
  2
Brighten
 70
    12
177
     2
291
     1
 71
     2
176
     1
 72
     2
176
     1
 73
     0
176
     1
 90
        0
176
     1
 40
0.6
176
     1
 41
30.0
176
     1
 62
     5
 63
     7
421
 16777215
176
     1
 74
     1
176
     1
 91
        4
176
     1
 64
     7
176
     1
 65
   257
176
     1
 75
     1
176
     1
175
     1
176
     1
 42
1.0
176
     1
 92
        8
176
     1
 66
     7
176
     1
 43
1.0
176
     1
 76
     1
176
     1
 77
     6
176
     1
 78
     2
176
     1
 67
     7
176
     1
 79
     5
176
     1
170
     0
176
     1
171
     0
176
     1
290
     0
176
     1
 93
        1
176
     1
 44
50.0
176
     1
173
     0
176
     1
  0
VISUALSTYLE
  5
8B1
102
{ACAD_REACTORS
330
8A1
102
}
330
8A1
100
AcDbVisualStyle
  2
ColorChange
 70
    16
177
     2
291
     1
 71
     2
176
     1
 72
     2
176
     1
 73
     3
176
     1
 90
        0
176
     1
 40
0.6
176
     1
 41
30.0
176
     1
 62
     5
 63
     8
421
  8421504
176
     1
 74
     1
176
     1
 91
        4
176
     1
 64
     7
176
     1
 65
   257
176
     1
 75
     1
176
     1
175
     1
176
     1
 42
1.0
176
     1
 92
        8
176
     1
 66
     8
424
  8421504
176
     1
 43
1.0
176
     1
 76
     1
176
     1
 77
     6
176
     1
 78
     2
176
     1
 67
     7
176
     1
 79
     5
176
     1
170
     0
176
     1
171
     0
176
     1
290
     0
176
     1
 93
        1
176
     1
 44
0.0
176
     1
173
     0
176
     1
  0
VISUALSTYLE
  5
8AB
102
{ACAD_REACTORS
330
8A1
102
}
330
8A1
100
AcDbVisualStyle
  2
Conceptual
 70
     9
177
     2
291
     0
 71
     3
176
     1
 72
     2
176
     1
 73
     0
176
     1
 90
        0
176
     1
 40
0.6
176
     1
 41
30.0
176
     1
 62
     5
 63
     7
421
 16777215
176
     1
 74
     2
176
     1
 91
        2
176
     1
 64
     7
176
     1
 65
   257
176
     1
 75
     1
176
     1
175
     1
176
     1
 42
179.0
176
     1
 92
        8
176
     1
 66
     7
176
     1
 43
1.0
176
     1
 76
     1
176
     1
 77
     6
176
     1
 78
     2
176
     1
 67
     7
176
     1
 79
     3
176
     1
170
     0
176
     1
171
     0
176
     1
290
     0
176
     1
 93
        1
176
     1
 44
0.0
176
     1
173
     0
176
     1
  0
VISUALSTYLE
  5
8AC
102
{ACAD_REACTORS
330
8A1
102
}
330
8A1
100
AcDbVisualStyle
  2
Dim
 70
    11
177
     2
291
     1
 71
     2
176
     1
 72
     2
176
     1
 73
     0
176
     1
 90
        0
176
     1
 40
0.6
176
     1
 41
30.0
176
     1
 62
     5
 63
     7
421
 16777215
176
     1
 74
     1
176
     1
 91
        4
176
     1
 64
     7
176
     1
 65
   257
176
     1
 75
     1
176
     1
175
     1
176
     1
 42
1.0
176
     1
 92
        8
176
     1
 66
     7
176
     1
 43
1.0
176
     1
 76
     1
176
     1
 77
     6
176
     1
 78
     2
176
     1
 67
     7
176
     1
 79
     5
176
     1
170
     0
176
     1
171
     0
176
     1
290
     0
176
     1
 93
        1
176
     1
 44
-50.0
176
     1
173
     0
176
     1
  0
VISUALSTYLE
  5
8B4
102
{ACAD_REACTORS
330
8A1
102
}
330
8A1
100
AcDbVisualStyle
  2
EdgeColorOff
 70
    22
177
     2
291
     1
 71
     2
176
     0
 72
     2
176
     0
 73
     0
176
     0
 90
        0
176
     0
 40
0.6
176
     0
 41
30.0
176
     0
 62
     5
 63
     7
421
 16777215
176
     0
 74
     1
176
     0
 91
        4
176
     0
 64
     7
176
     0
 65
   257
176
     0
 75
     1
176
     0
175
     1
176
     0
 42
1.0
176
     0
 92
        8
176
     2
 66
     7
176
     0
 43
1.0
176
     0
 76
     1
176
     0
 77
     6
176
     0
 78
     2
176
     0
 67
     7
176
     0
 79
     5
176
     0
170
     0
176
     0
171
     0
176
     0
290
     0
176
     0
 93
        1
176
     0
 44
0.0
176
     0
173
     0
176
     0
  0
VISUALSTYLE
  5
8B0
102
{ACAD_REACTORS
330
8A1
102
}
330
8A1
100
AcDbVisualStyle
  2
Facepattern
 70
    15
177
     2
291
     1
 71
     2
176
     1
 72
     2
176
     1
 73
     0
176
     1
 90
        0
176
     1
 40
0.6
176
     1
 41
30.0
176
     1
 62
     5
 63
     7
421
 16777215
176
     1
 74
     1
176
     1
 91
        4
176
     1
 64
     7
176
     1
 65
   257
176
     1
 75
     1
176
     1
175
     1
176
     1
 42
1.0
176
     1
 92
        8
176
     1
 66
     7
176
     1
 43
1.0
176
     1
 76
     1
176
     1
 77
     6
176
     1
 78
     2
176
     1
 67
     7
176
     1
 79
     5
176
     1
170
     0
176
     1
171
     0
176
     1
290
     0
176
     1
 93
        1
176
     1
 44
0.0
176
     1
173
     0
176
     1
  0
VISUALSTYLE
  5
8A2
102
{ACAD_REACTORS
330
8A1
102
}
330
8A1
100
AcDbVisualStyle
  2
Flat
 70
     0
177
     2
291
     1
 71
     2
176
     1
 72
     1
176
     1
 73
     1
176
     1
 90
        2
176
     1
 40
0.6
176
     1
 41
30.0
176
     1
 62
     5
 63
     7
421
 16777215
176
     1
 74
     0
176
     1
 91
        0
176
     1
 64
     7
176
     1
 65
   257
176
     1
 75
     1
176
     1
175
     1
176
     1
 42
1.0
176
     1
 92
        8
176
     1
 66
     7
176
     1
 43
1.0
176
     1
 76
     1
176
     1
 77
     6
176
     1
 78
     2
176
     1
 67
     7
176
     1
 79
     5
176
     1
170
     0
176
     1
171
     0
176
     1
290
     0
176
     1
 93
       13
176
     1
 44
0.0
176
     1
173
     0
176
     1
  0
VISUALSTYLE
  5
8A3
102
{ACAD_REACTORS
330
8A1
102
}
330
8A1
100
AcDbVisualStyle
  2
FlatWithEdges
 70
     1
177
     2
291
     1
 71
     2
176
     1
 72
     1
176
     1
 73
     1
176
     1
 90
        2
176
     1
 40
0.6
176
     1
 41
30.0
176
     1
 62
     5
 63
     7
421
 16777215
176
     1
 74
     1
176
     1
 91
        0
176
     1
 64
     7
176
     1
 65
   257
176
     1
 75
     1
176
     1
175
     1
176
     1
 42
1.0
176
     1
 92
        0
176
     1
 66
   257
176
     1
 43
1.0
176
     1
 76
     1
176
     1
 77
     6
176
     1
 78
     2
176
     1
 67
     7
176
     1
 79
     5
176
     1
170
     0
176
     1
171
     0
176
     1
290
     0
176
     1
 93
       13
176
     1
 44
0.0
176
     1
173
     0
176
     1
  0
VISUALSTYLE
  5
8A4
102
{ACAD_REACTORS
330
8A1
102
}
330
8A1
100
AcDbVisualStyle
  2
Gouraud
 70
     2
177
     2
291
     1
 71
     2
176
     1
 72
     2
176
     1
 73
     1
176
     1
 90
        2
176
     1
 40
0.6
176
     1
 41
30.0
176
     1
 62
     5
 63
     7
421
 16777215
176
     1
 74
     0
176
     1
 91
        0
176
     1
 64
     7
176
     1
 65
   257
176
     1
 75
     1
176
     1
175
     1
176
     1
 42
1.0
176
     1
 92
        0
176
     1
 66
     7
176
     1
 43
1.0
176
     1
 76
     1
176
     1
 77
     6
176
     1
 78
     2
176
     1
 67
     7
176
     1
 79
     5
176
     1
170
     0
176
     1
171
     0
176
     1
290
     0
176
     1
 93
       13
176
     1
 44
0.0
176
     1
173
     0
176
     1
  0
VISUALSTYLE
  5
8A5
102
{ACAD_REACTORS
330
8A1
102
}
330
8A1
100
AcDbVisualStyle
  2
GouraudWithEdges
 70
     3
177
     2
291
     1
 71
     2
176
     1
 72
     2
176
     1
 73
     1
176
     1
 90
        2
176
     1
 40
0.6
176
     1
 41
30.0
176
     1
 62
     5
 63
     7
421
 16777215
176
     1
 74
     1
176
     1
 91
        0
176
     1
 64
     7
176
     1
 65
   257
176
     1
 75
     1
176
     1
175
     1
176
     1
 42
1.0
176
     1
 92
        0
176
     1
 66
   257
176
     1
 43
1.0
176
     1
 76
     1
176
     1
 77
     6
176
     1
 78
     2
176
     1
 67
     7
176
     1
 79
     5
176
     1
170
     0
176
     1
171
     0
176
     1
290
     0
176
     1
 93
       13
176
     1
 44
0.0
176
     1
173
     0
176
     1
  0
VISUALSTYLE
  5
8A8
102
{ACAD_REACTORS
330
8A1
102
}
330
8A1
100
AcDbVisualStyle
  2
Hidden
 70
     6
177
     2
291
     0
 71
     1
176
     1
 72
     2
176
     1
 73
     2
176
     1
 90
        0
176
     1
 40
0.6
176
     1
 41
30.0
176
     1
 62
     5
 63
     7
421
 16777215
176
     1
 74
     2
176
     1
 91
        2
176
     1
 64
     7
176
     1
 65
   257
176
     1
 75
     2
176
     1
175
     1
176
     1
 42
40.0
176
     1
 92
        0
176
     1
 66
   257
176
     1
 43
1.0
176
     1
 76
     1
176
     1
 77
     6
176
     1
 78
     2
176
     1
 67
     7
176
     1
 79
     3
176
     1
170
     0
176
     1
171
     0
176
     1
290
     0
176
     1
 93
        1
176
     1
 44
0.0
176
     1
173
     0
176
     1
  0
VISUALSTYLE
  5
8B2
102
{ACAD_REACTORS
330
8A1
102
}
330
8A1
100
AcDbVisualStyle
  2
JitterOff
 70
    20
177
     2
291
     1
 71
     2
176
     0
 72
     2
176
     0
 73
     0
176
     0
 90
        0
176
     0
 40
0.6
176
     0
 41
30.0
176
     0
 62
     5
 63
     7
421
 16777215
176
     0
 74
     1
176
     0
 91
        4
176
     0
 64
     7
176
     0
 65
   257
176
     0
 75
     1
176
     0
175
     1
176
     0
 42
1.0
176
     0
 92
       10
176
     2
 66
     7
176
     0
 43
1.0
176
     0
 76
     1
176
     0
 77
     6
176
     0
 78
     2
176
     0
 67
     7
176
     0
 79
     5
176
     0
170
     0
176
     0
171
     0
176
     0
290
     0
176
     0
 93
        1
176
     0
 44
0.0
176
     0
173
     0
176
     0
  0
VISUALSTYLE
  5
8AF
102
{ACAD_REACTORS
330
8A1
102
}
330
8A1
100
AcDbVisualStyle
  2
Linepattern
 70
    14
177
     2
291
     1
 71
     2
176
     1
 72
     2
176
     1
 73
     0
176
     1
 90
        0
176
     1
 40
0.6
176
     1
 41
30.0
176
     1
 62
     5
 63
     7
421
 16777215
176
     1
 74
     1
176
     1
 91
        4
176
     1
 64
     7
176
     1
 65
   257
176
     1
 75
     7
176
     1
175
     7
176
     1
 42
1.0
176
     1
 92
        8
176
     1
 66
     7
176
     1
 43
1.0
176
     1
 76
     1
176
     1
 77
     6
176
     1
 78
     2
176
     1
 67
     7
176
     1
 79
     5
176
     1
170
     0
176
     1
171
     0
176
     1
290
     0
176
     1
 93
        1
176
     1
 44
0.0
176
     1
173
     0
176
     1
  0
VISUALSTYLE
  5
8B3
102
{ACAD_REACTORS
330
8A1
102
}
330
8A1
100
AcDbVisualStyle
  2
OverhangOff
 70
    21
177
     2
291
     1
 71
     2
176
     0
 72
     2
176
     0
 73
     0
176
     0
 90
        0
176
     0
 40
0.6
176
     0
 41
30.0
176
     0
 62
     5
 63
     7
421
 16777215
176
     0
 74
     1
176
     0
 91
        4
176
     0
 64
     7
176
     0
 65
   257
176
     0
 75
     1
176
     0
175
     1
176
     0
 42
1.0
176
     0
 92
        9
176
     2
 66
     7
176
     0
 43
1.0
176
     0
 76
     1
176
     0
 77
     6
176
     0
 78
     2
176
     0
 67
     7
176
     0
 79
     5
176
     0
170
     0
176
     0
171
     0
176
     0
290
     0
176
     0
 93
        1
176
     0
 44
0.0
176
     0
173
     0
176
     0
  0
VISUALSTYLE
  5
8AA
102
{ACAD_REACTORS
330
8A1
102
}
330
8A1
100
AcDbVisualStyle
  2
Realistic
 70
     8
177
     2
291
     0
 71
     2
176
     1
 72
     3
176
     1
 73
     0
176
     1
 90
        2
176
     1
 40
0.6
176
     1
 41
30.0
176
     1
 62
     5
 63
     7
421
 16777215
176
     1
 74
     0
176
     1
 91
        0
176
     1
 64
     7
176
     1
 65
   257
176
     1
 75
     1
176
     1
175
     1
176
     1
 42
1.0
176
     1
 92
        8
176
     1
 66
   257
176
     1
 43
1.0
176
     1
 76
     1
176
     1
 77
     6
176
     1
 78
     2
176
     1
 67
     7
176
     1
 79
     3
176
     1
170
     0
176
     1
171
     0
176
     1
290
     0
176
     1
 93
       13
176
     1
 44
0.0
176
     1
173
     0
176
     1
  0
VISUALSTYLE
  5
8B9
102
{ACAD_REACTORS
330
8A1
102
}
330
8A1
100
AcDbVisualStyle
  2
Shaded
 70
    27
177
     2
291
     0
 71
     2
176
     1
 72
     2
176
     1
 73
     1
176
     1
 90
        2
176
     1
 40
0.6
176
     1
 41
30.0
176
     1
 62
     5
 63
     7
421
 16777215
176
     1
 74
     0
176
     1
 91
        4
176
     1
 64
     7
176
     1
 65
   257
176
     1
 75
     1
176
     1
175
     1
176
     1
 42
1.0
176
     1
 92
        8
176
     1
 66
   257
176
     1
 43
1.0
176
     1
 76
     1
176
     1
 77
     6
176
     1
 78
     2
176
     1
 67
     8
425
  7895160
176
     1
 79
     3
176
     1
170
     0
176
     1
171
     0
176
     1
290
     0
176
     1
 93
        5
176
     1
 44
0.0
176
     1
173
     0
176
     1
  0
VISUALSTYLE
  5
8B8
102
{ACAD_REACTORS
330
8A1
102
}
330
8A1
100
AcDbVisualStyle
  2
Shaded with edges
 70
    26
177
     2
291
     0
 71
     2
176
     1
 72
     2
176
     1
 73
     1
176
     1
 90
        2
176
     1
 40
0.6
176
     1
 41
30.0
176
     1
 62
     5
 63
     7
421
 16777215
176
     1
 74
     1
176
     1
 91
       10
176
     1
 64
     7
176
     1
 65
   257
176
     1
 75
     2
176
     1
175
     1
176
     1
 42
1.0
176
     1
 92
        8
176
     1
 66
   257
176
     1
 43
1.0
176
     1
 76
     1
176
     1
 77
     6
176
     1
 78
     2
176
     1
 67
     7
176
     1
 79
     3
176
     1
170
     0
176
     1
171
     0
176
     1
290
     0
176
     1
 93
        5
176
     1
 44
0.0
176
     1
173
     0
176
     1
  0
VISUALSTYLE
  5
8B5
102
{ACAD_REACTORS
330
8A1
102
}
330
8A1
100
AcDbVisualStyle
  2
Shades of Gray
 70
    23
177
     2
291
     0
 71
     2
176
     1
 72
     2
176
     1
 73
     3
176
     1
 90
        0
176
     1
 40
0.6
176
     1
 41
30.0
176
     1
 62
     5
 63
     7
421
 16777215
176
     1
 74
     2
176
     1
 91
        2
176
     1
 64
     7
176
     1
 65
     7
176
     1
 75
     1
176
     1
175
     1
176
     1
 42
40.0
176
     1
 92
        8
176
     1
 66
     7
176
     1
 43
1.0
176
     1
 76
     1
176
     1
 77
     6
176
     1
 78
     2
176
     1
 67
     7
176
     1
 79
     3
176
     1
170
     0
176
     1
171
     0
176
     1
290
     0
176
     1
 93
        1
176
     1
 44
0.0
176
     1
173
     0
176
     1
  0
VISUALSTYLE
  5
8B6
102
{ACAD_REACTORS
330
8A1
102
}
330
8A1
100
AcDbVisualStyle
  2
Sketchy
 70
    24
177
     2
291
     0
 71
     1
176
     1
 72
     2
176
     1
 73
     2
176
     1
 90
        0
176
     1
 40
0.6
176
     1
 41
30.0
176
     1
 62
     5
 63
     7
421
 16777215
176
     1
 74
     2
176
     1
 91
        2
176
     1
 64
     7
176
     1
 65
     7
176
     1
 75
     1
176
     1
175
     1
176
     1
 42
40.0
176
     1
 92
       11
176
     1
 66
     7
176
     1
 43
1.0
176
     1
 76
     1
176
     1
 77
     6
176
     1
 78
     2
176
     1
 67
     7
176
     1
 79
     6
176
     1
170
     0
176
     1
171
     0
176
     1
290
     0
176
     1
 93
        1
176
     1
 44
0.0
176
     1
173
     0
176
     1
  0
VISUALSTYLE
  5
8AE
102
{ACAD_REACTORS
330
8A1
102
}
330
8A1
100
AcDbVisualStyle
  2
Thicken
 70
    13
177
     2
291
     1
 71
     2
176
     1
 72
     2
176
     1
 73
     0
176
     1
 90
        0
176
     1
 40
0.6
176
     1
 41
30.0
176
     1
 62
     5
 63
     7
421
 16777215
176
     1
 74
     1
176
     1
 91
        4
176
     1
 64
     7
176
     1
 65
   257
176
     1
 75
     1
176
     1
175
     1
176
     1
 42
1.0
176
     1
 92
       12
176
     1
 66
     7
176
     1
 43
1.0
176
     1
 76
     1
176
     1
 77
     6
176
     1
 78
     2
176
     1
 67
     7
176
     1
 79
     5
176
     1
170
     0
176
     1
171
     0
176
     1
290
     0
176
     1
 93
        1
176
     1
 44
0.0
176
     1
173
     0
176
     1
  0
VISUALSTYLE
  5
8A7
102
{ACAD_REACTORS
330
8A1
102
}
330
8A1
100
AcDbVisualStyle
  2
Wireframe
 70
     5
177
     2
291
     0
 71
     0
176
     1
 72
     2
176
     1
 73
     0
176
     1
 90
        0
176
     1
 40
0.6
176
     1
 41
30.0
176
     1
 62
     5
 63
     7
421
 16777215
176
     1
 74
     1
176
     1
 91
        4
176
     1
 64
     7
176
     1
 65
   257
176
     1
 75
     1
176
     1
175
     1
176
     1
 42
1.0
176
     1
 92
        0
176
     1
 66
   257
176
     1
 43
1.0
176
     1
 76
     1
176
     1
 77
     6
176
     1
 78
     2
176
     1
 67
     7
176
     1
 79
     3
176
     1
170
     0
176
     1
171
     0
176
     1
290
     0
176
     1
 93
        1
176
     1
 44
0.0
176
     1
173
     0
176
     1
  0
VISUALSTYLE
  5
8B7
102
{ACAD_REACTORS
330
8A1
102
}
330
8A1
100
AcDbVisualStyle
  2
X-Ray
 70
    25
177
     2
291
     0
 71
     2
176
     1
 72
     2
176
     1
 73
     1
176
     1
 90
        1
176
     1
 40
0.5
176
     1
 41
30.0
176
     1
 62
     5
 63
     7
421
 16777215
176
     1
 74
     1
176
     1
 91
        0
176
     1
 64
     7
176
     1
 65
   257
176
     1
 75
     1
176
     1
175
     1
176
     1
 42
1.0
176
     1
 92
        8
176
     1
 66
     7
176
     1
 43
1.0
176
     1
 76
     1
176
     1
 77
     6
176
     1
 78
     2
176
     1
 67
     7
176
     1
 79
     3
176
     1
170
     0
176
     1
171
     0
176
     1
290
     0
176
     1
 93
       13
176
     1
 44
0.0
176
     1
173
     0
176
     1
  0
DICTIONARYVAR
  5
8E4
102
{ACAD_REACTORS
330
822
102
}
330
822
100
DictionaryVariables
280
     0
  1
1:1
  0
DICTIONARYVAR
  5
8E6
102
{ACAD_REACTORS
330
822
102
}
330
822
100
DictionaryVariables
280
     0
  1
Standard
  0
DICTIONARYVAR
  5
8E5
102
{ACAD_REACTORS
330
822
102
}
330
822
100
DictionaryVariables
280
     0
  1
Standard
  0
DICTIONARYVAR
  5
823
102
{ACAD_REACTORS
330
822
102
}
330
822
100
DictionaryVariables
280
     0
  1
1
  0
DICTIONARYVAR
  5
8E7
102
{ACAD_REACTORS
330
822
102
}
330
822
100
DictionaryVariables
280
     0
  1
0
  0
DICTIONARYVAR
  5
873
102
{ACAD_REACTORS
330
822
102
}
330
822
100
DictionaryVariables
280
     0
  1

  0
DICTIONARY
  5
939
330
8E0
100
AcDbDictionary
280
     1
281
     1
  3
ACAD_ROUNDTRIP_2008_TABLESTYLE_CELLSTYLEMAP
360
93A
  0
CELLSTYLEMAP
  5
93A
102
{ACAD_REACTORS
330
939
102
}
330
939
100
AcDbCellStyleMap
 90
        3
300
CELLSTYLE
  1
TABLEFORMAT_BEGIN
 90
        5
170
     1
 91
        0
 92
    32768
 62
   257
 93
        1
300
CONTENTFORMAT
  1
CONTENTFORMAT_BEGIN
 90
        0
 91
        0
 92
        4
 93
        0
300

 40
0.0
140
1.0
 94
        5
 62
     0
340
11
144
0.25
309
CONTENTFORMAT_END
171
     1
301
MARGIN
  1
CELLMARGIN_BEGIN
 40
0.06
 40
0.06
 40
0.06
 40
0.06
 40
0.06
 40
0.06
309
CELLMARGIN_END
 94
        6
 95
        1
302
GRIDFORMAT
  1
GRIDFORMAT_BEGIN
 90
        0
 91
        1
 62
     0
 92
       -2
340
13
 93
        0
 40
0.045
309
GRIDFORMAT_END
 95
        2
302
GRIDFORMAT
  1
GRIDFORMAT_BEGIN
 90
        0
 91
        1
 62
     0
 92
       -2
340
13
 93
        0
 40
0.045
309
GRIDFORMAT_END
 95
        4
302
GRIDFORMAT
  1
GRIDFORMAT_BEGIN
 90
        0
 91
        1
 62
     0
 92
       -2
340
13
 93
        0
 40
0.045
309
GRIDFORMAT_END
 95
        8
302
GRIDFORMAT
  1
GRIDFORMAT_BEGIN
 90
        0
 91
        1
 62
     0
 92
       -2
340
13
 93
        0
 40
0.045
309
GRIDFORMAT_END
 95
       16
302
GRIDFORMAT
  1
GRIDFORMAT_BEGIN
 90
        0
 91
        1
 62
     0
 92
       -2
340
13
 93
        0
 40
0.045
309
GRIDFORMAT_END
 95
       32
302
GRIDFORMAT
  1
GRIDFORMAT_BEGIN
 90
        0
 91
        1
 62
     0
 92
       -2
340
13
 93
        0
 40
0.045
309
GRIDFORMAT_END
309
TABLEFORMAT_END
  1
CELLSTYLE_BEGIN
 90
        1
 91
        1
300
_TITLE
309
CELLSTYLE_END
300
CELLSTYLE
  1
TABLEFORMAT_BEGIN
 90
        5
170
     1
 91
        0
 92
        0
 62
   257
 93
        1
300
CONTENTFORMAT
  1
CONTENTFORMAT_BEGIN
 90
        0
 91
        0
 92
        4
 93
        0
300

 40
0.0
140
1.0
 94
        5
 62
     0
340
11
144
0.18
309
CONTENTFORMAT_END
171
     1
301
MARGIN
  1
CELLMARGIN_BEGIN
 40
0.06
 40
0.06
 40
0.06
 40
0.06
 40
0.06
 40
0.06
309
CELLMARGIN_END
 94
        6
 95
        1
302
GRIDFORMAT
  1
GRIDFORMAT_BEGIN
 90
        0
 91
        1
 62
     0
 92
       -2
340
13
 93
        0
 40
0.045
309
GRIDFORMAT_END
 95
        2
302
GRIDFORMAT
  1
GRIDFORMAT_BEGIN
 90
        0
 91
        1
 62
     0
 92
       -2
340
13
 93
        0
 40
0.045
309
GRIDFORMAT_END
 95
        4
302
GRIDFORMAT
  1
GRIDFORMAT_BEGIN
 90
        0
 91
        1
 62
     0
 92
       -2
340
13
 93
        0
 40
0.045
309
GRIDFORMAT_END
 95
        8
302
GRIDFORMAT
  1
GRIDFORMAT_BEGIN
 90
        0
 91
        1
 62
     0
 92
       -2
340
13
 93
        0
 40
0.045
309
GRIDFORMAT_END
 95
       16
302
GRIDFORMAT
  1
GRIDFORMAT_BEGIN
 90
        0
 91
        1
 62
     0
 92
       -2
340
13
 93
        0
 40
0.045
309
GRIDFORMAT_END
 95
       32
302
GRIDFORMAT
  1
GRIDFORMAT_BEGIN
 90
        0
 91
        1
 62
     0
 92
       -2
340
13
 93
        0
 40
0.045
309
GRIDFORMAT_END
309
TABLEFORMAT_END
  1
CELLSTYLE_BEGIN
 90
        2
 91
        1
300
_HEADER
309
CELLSTYLE_END
300
CELLSTYLE
  1
TABLEFORMAT_BEGIN
 90
        5
170
     1
 91
        0
 92
        0
 62
   257
 93
        1
300
CONTENTFORMAT
  1
CONTENTFORMAT_BEGIN
 90
        0
 91
        0
 92
        4
 93
        0
300

 40
0.0
140
1.0
 94
        2
 62
     0
340
11
144
0.18
309
CONTENTFORMAT_END
171
     1
301
MARGIN
  1
CELLMARGIN_BEGIN
 40
0.06
 40
0.06
 40
0.06
 40
0.06
 40
0.06
 40
0.06
309
CELLMARGIN_END
 94
        6
 95
        1
302
GRIDFORMAT
  1
GRIDFORMAT_BEGIN
 90
        0
 91
        1
 62
     0
 92
       -2
340
13
 93
        0
 40
0.045
309
GRIDFORMAT_END
 95
        2
302
GRIDFORMAT
  1
GRIDFORMAT_BEGIN
 90
        0
 91
        1
 62
     0
 92
       -2
340
13
 93
        0
 40
0.045
309
GRIDFORMAT_END
 95
        4
302
GRIDFORMAT
  1
GRIDFORMAT_BEGIN
 90
        0
 91
        1
 62
     0
 92
       -2
340
13
 93
        0
 40
0.045
309
GRIDFORMAT_END
 95
        8
302
GRIDFORMAT
  1
GRIDFORMAT_BEGIN
 90
        0
 91
        1
 62
     0
 92
       -2
340
13
 93
        0
 40
0.045
309
GRIDFORMAT_END
 95
       16
302
GRIDFORMAT
  1
GRIDFORMAT_BEGIN
 90
        0
 91
        1
 62
     0
 92
       -2
340
13
 93
        0
 40
0.045
309
GRIDFORMAT_END
 95
       32
302
GRIDFORMAT
  1
GRIDFORMAT_BEGIN
 90
        0
 91
        1
 62
     0
 92
       -2
340
13
 93
        0
 40
0.045
309
GRIDFORMAT_END
309
TABLEFORMAT_END
  1
CELLSTYLE_BEGIN
 90
        3
 91
        2
300
_DATA
309
CELLSTYLE_END
  0
ENDSEC
  0
EOF
